Misc
Meow Mix Power Chord Version (Guitar tab)

As promised, here is the meow mix heavy power chord version. It sounds best with a singer screwming: "MEOW MEOW MEOW MEOW", etc. lol. Here we go.

E----------------------------------------- X2
B----------------------------------------- X2
G----------------------------------------- X2
D---7-x-6-x-4-0---------------------------
A---5-x-4-x-2-0---------------------------
E-----------------------------------------


E-----------------------------------------
B-----------------------------------------
G-----------------------------------------
D---7-x-6-7-8-9b11-6-4-x-2----------------
A---5-x-4-5-6-7b9--4-2-x-0----------------
E-----------------------------------------


Have fun..


Rick :)

  • rickbehr

    Submitted by

    rickbehr at Sun 27 Jul, 2003 8:35 am

  • <
Copyrights
Author: ?
Composer: ?
Publisher: ?
More details
Language: English

Reactions

1 post

CommonCrawl [Bot]

Not Bad Sun 27 Jul, 2003 11:56 pm

Jesus Christ ...

1 post • Page 1 of 1

Follow Muzikum