Misc
Diddy (Guitar tab)

Title: Diddy
Submitted by: Fraun
Email: seanandsherri@hotmail.com

Email me with any questions or comments

something I learned a while back

-----------
please rate
-----------

E A D G B E


--------0-1-0-----------0-1-0---0---0-3-0---0-3-0-------0-1-0-----
----0-3-------3-0---0-3-------3---1-------1---------0-3-------3-0-
--0---------------0-------------------------------0---------------
------------------------------------------------------------------
------------------------------------------------------------------
------------------------------------------------------------------

------------------------0-3-3-------------------------------------
----0-1---3-1-0-----0-3-------------------------------------------
--2-----2-------2-0-----------------------------------------------
------------------------------------------------------------------
------------------------------------------------------------------
------------------------------------------------------------------

  • fraun

    Submitted by

    fraun at Mon 17 Nov, 2003 11:09 am

  • <
Copyrights
Author: ?
Composer: ?
Publisher: ?
More details
Language: English

Reactions

CommonCrawl [Bot]

Follow Muzikum