Frying Rats

Frying Rats
Bullhonkey Thusdays (Guitar tab)

Song Title: Bullhonkey Thusdays
Artist: Frying Rats

E------------------
B------------------
G-----------x------
D---2--x----x------
A---0--x----x------
E------x--0---0----

E--------------------
B--------------------
G-----------x--------
D---2--x----x-2-2-2--
A---0--x----x-2-2-2--
E------x--0---0-0-0--

Play the first... then second....repeat 10 times....


LYRICS:
-------

Bull... Bullhonkey
Bull... Bullhonkey on a Thursday Morning

Da boom da bam bam da bamb bamp da

OptimusPrime

Toegevoegd door OptimusPrime op zo 01 dec, 2002 9:50 am

Auteur: ?
Componist: ?
Uitgever: ?
Taal: Engels

Reacties

CommonCrawl [Bot]

Volg Muzikum