Unsigned
paranoid chameleons - bushafied (Bass tab)

Artist: TORN
Album: None yet
Song: Bushafied

Intro 1X
G[---------------------------------------]
D[---------------------------------------]
A[---------------------------------------]
E[-2----2----2----2----2----2----2----2--]

Chorus X4
G[--------------------------------]
D[--------------------------------]
A[----------------2--2-2---4-5-4--]
E[-2--2-2---5-5-------------------]

Verse X8
G[------------------------------------]
D[------------------------------------]
A[-----------------2-2-2-2-44445555*--]
E[-2-2-2-2-5-5-5-5--------------------]

*For the part where I go [44445555] in the verse, just improvise on those two
notes with in the rhythm.

  • evilandy

    Submitted by

    evilandy at Wed 31 Dec, 2003 6:10 am

  • <
Copyrights
Author: ?
Composer: ?
Publisher: ?
More details
Language: English

Reactions

1 post

CommonCrawl [Bot]

linoleuM Sun 02 Jan, 2005 5:26 pm

I like it andy, Nice

1 post • Page 1 of 1

Follow Muzikum