Unsigned
Ancient Defiance- As "i" (Guitar tab)

this is a song consisting of dual guitar parts,
electric clean with a acoustic backup.
ancient defiance= as "i"
tabbed by: theangelscreamer
standard tuning: EADGBe

_____________________________________________________________________________________

GUITAR #1 (ELECTRIC=CLEAN) VERSE:
e--x---x-x-x-x-x-x-5-5-x-x--x---x-x-x-x-x-x-3-3-x-x
B--5---5-5-5-5-5-5-5-5-5-5--3---3-3-3-3-3-3-3-3-3-3
G--4---4-4-4-4-4-4-4-4-4-4--2---2-2-2-2-2-2-2-2-2-2 REPEAT AS NEEDED
D--0---0-0-0-0-0-0-0-0-0-0--0---0-0-0-0-0-0-0-0-0-0
A--------------------------------------------------
E--------------------------------------------------
GUITAR #2 (ACOUSTIC) VERSE:
e--3--3-3-3-0-0-0-0-0-0-0-2-2-2-2-0-0-0-0-0-0-0----
B--0--0-0-0-0-0-0-0-0-0-0-0-0-0-0-0-0-0-0-0-0-0----
G--0--0-0-0-0-0-0-0-0-0-0-0-0-0-0-2-2-2-2-2-2-2----
D--2--2-2-2-2-2-2-2-2-2-2-0-0-0-0-0-0-0-0-0-0-0---- REPEAT AS NEEDED
A--0--0-0-0-0-0-0-0-0-0-0-0-0-0-0-0-0-0-0-0-0-0----
E--3--3-3-3-3-3-3-3-3-3-3-3-3-3-3-3-3-3-3-3-3-3----
CHORUS: (ELECTRIC DISTORTION, AND ACOUTIC)
e----------------------------------------------------
B----------------------------------------------------
G----------------------------------------------------
D--2-2-2-2-2-2-2-2-2--0-0-0-0-0-0-0-0-0-0-0--4------0 REPAT AS NEEDED
A--3-3-3-3-3-3-3-3-3--2-2-2-2-2-2-2-2-2-2-2--4------0
E--0-0-0-0-0-0-0-0-0--0-0-0-0-0-0-0-0-0-0-0--4------0

VERSE
VERSE
CHORUS
VERSE
VERSE
CHORUS
CHORUS=(CLEAN)
CHORUS=(ACOUSTIC ONLY)
VERSE =(OUtRO)

verse: as i walk amongst the stars of heavenly
bright light, filled me with such
angry voices of pain, of shame, of mame

verse 2: all out to me as i know you, feeling
hurt and confused by the simple fact of
i love you, isnt enough to explain, to explain, to explain

chorus: as I_____________ see tears________________holding you down
*holding you down*

Copyrights
Author: ?
Composer: ?
Publisher: ?
More details
Language: English

Reactions

CommonCrawl [Bot]

Follow Muzikum