Unsigned
Adam Croft - Someone I Can Love (Guitar tab)

-----------------------------------------------
-----------------------------------------------
--------^-----^---------^-----^----------------
-7-7--7-7-7-7-7--9-9--9-9-9-9-9--7-7--5-5--3--5
-5-5--5-5-5-5-5--7-7--7-7-7-7-7--5-5--3-3--5--3

------------------------------------------------------------------
------------------------------------------------------------------
--------^-----^---------^-----^----------^-----^---------^-----^--
-7-7--7-7-7-7-7--9-9--9-9-9-9-9---7-7--7-7-7-7-7--5-5--5-5-5-5-5--
-5-5--5-5-5-5-5--7-7--7-7-7-7-7---5-5--5-5-5-5-5--3-3--3-3-3-3-3--

-----------------------------------------------------------------------------
-----------------------------------------------------------------------------
--------^-----^------------^--------^--------------^--------^-----^-----^----
-7-7--7-7-7-7-7--9--9---9--9--9--9--9----11-11--11-11-11-11-11--7-7-7-5-5-5--
-5-5--5-5-5-5-5--7--7---7--7--7--7--7----9--9---9--9--9--9--9---5-5-5-3-3-3--

--------------------------------------------------------
--------------------------------------------------------
--------------------------------------------------------
-7-7-7-7-9--9--9--9--7-7-7-7-9--9--9--9--7-7-7-7-5-5-5-5
-9-9-9-9-11-11-11-11-9-9-9-9-11-11-11-11-9-9-9-9-7-7-7-7

-----------------------------------------------------------------------
-----------------------------------------------------------------------
-----------------------------------------------------------------------
7-7-5-5-3---7-7-5-5-3---7-7-7-7-9--9--9--9----9--9--7-7-5-5---7-7-5-5-3
9-9-7-7-5---9-9-7-7-5---9-9-9-9-11-11-11-11---11-11-9-9-7-7---9-9-7-7-5

Copyrights
Author: ?
Composer: ?
Publisher: ?

Reactions

CommonCrawl [Bot]

Follow Muzikum