Reminition

Reminition
Is She Goin Out With Him (Bass tab)

song: is she goin out with him
artist: reminition
e-mail: reminition@hotmail.com

Intro

g|--------------------------------------------|
d|--------13---------11--------9--------11----|
a|--11-11----11--9-9----9--7-7---7--9-9----9--|
e|--------------------------------------------|

Verse

g|----------------------------------------------------------------------|
d|----------------------------------------------------------------------|
a|--6-6-6-6-6-6-6-6--2-2-2-2-2-2-2-2--4-4-4-4-4-4-4-4--0-0-0-0-0-0-0-0--|
e|----------------------------------------------------------------------|

Chorus

g|-------------------------------------|
d|-------------------------------------|
a|--6-6-6-6-6-6-6-6--2-2-2-2--4-4-4-4--|
e|-------------------------------------|

Interlude

g|------------------------------------------------------|
d|--------13--------------11--------9-------------11----|
a|--11-11----11--9--9-9-9----9--7-7---7--9--9-9-9----9--|
e|------------------------------------------------------|

Guitar Intro x2
Intro x2
Verse x2
Chorus x2
Verse x2
Chorus x2
Verse x2
Chorus x2
Interlude x4

OptimusPrime

Submitted by OptimusPrime at Thu 14 Aug, 2003 6:10 pm

Author: ?
Composer: ?
Publisher: ?
Language: English

Reactions

CommonCrawl [Bot]

Follow Muzikum