Misc
Pepsi Blue Theme (Guitar tab)

Song: Same Old Song (Pepsi Blue Theme)
Artist: Sev
Tunging: Drop-D (EBGDAD)
Tabber: Rob Marston (rob@leftatom.com)
Notes: This song rules, and the commercial is cool too!



Intro:

You can play it all yourself like this:

E-|---2p0-0-0-0-0-0-0---2p0-0-0-0-0-0-0---|
B-|---------------------------------------|
G-|---------------------------------------|
D-|---------------------------------------|
A-|---------------------------------------|
D-|---------------------------------------|

E-|---2p0-0-0-2h3---5---|
B-|---------------------|
G-|---------------4-----|
D-|---------------------|
A-|---------------------|
D-|---------------------|

Or play usuing two guitarists like this:

E-|---0-0-0-0-0-0-0---0-0-0-0-0-0-0---|
B-|-----------------------------------|
G-|-----------------------------------| Repeat!
D-|-----------------------------------|
A-|-----------------------------------|
D-|-----------------------------------|

And your pal on the other guitar can play this:

E-|---2p0--2p0---2p0---2h3---5---|
B-|------------------------------|
G-|------------------------4-----|
D-|------------------------------|
A-|------------------------------|
D-|------------------------------|


Verse:

The main riff (bass)

E-|---------------------------------------------|
B-|---------------------------------------------|
G-|---------------------------------------------|
D-|---------------------------------------------|
A-|---------------------------------------------|
D-|---7-7-7-7---0-2-2-2-2---9-9-9-9---7-7-7-7---|

The fill part (very high freqency, probably uses effects)

E-|---15-16-15-----------------------|
B-|------------16---17-16-15-16-17---|
G-|----------------------------------|
D-|----------------------------------|
A-|----------------------------------|
D-|----------------------------------|


Chorus:

Copyrights
Author: ?
Composer: ?
Publisher: ?
More details
Language: English

Reactions

CommonCrawl [Bot]

Follow Muzikum