Misc
Spanish Riff (Guitar tab)

Spanish Riff Miscellaneous
H - Hammer on
P- Pull Off / - Slide up to



E--------------------------------------0--/5-3-0--5-7-8-7-5-3-0-------------------

B------------0--/5-3-1-------------------------------------------------------

G----2p0h2--------------2p0h2---------------------------------------------------


E----5-7-5-------5-7-8--------5-7-8-10-8-7-5---------------------------------------

B--5-----------5------------5--------------------------------------------

G---------------------------------------------------------------------



E--3-0--1-0---------------------------------------------------------------

B-------------3-1-0------------------------------------------------------

Copyrights
Author: ?
Composer: ?
Publisher: ?
More details
Language: English

Reactions

CommonCrawl [Bot]

Follow Muzikum