Misc
Dahil Sa Iyo (Guitar tab)

this songs da bomb... if u want a girl to fall in love with u
this songs the one..

*if u want to really feel the song, start it with this words
"dear ate charo... then play the intro" :)


INTRO:

-16-14-14----14-16-14-13-11-14-13-13-13(4x)------17---8-9-11-9--------------------------------------------------------------------
---------------------------------------------16-----------------------------------------------
--------------------------------------------------------------------------------------------
--------------------------------------------------------------------------------------------
--------------------------------------------------------------------------------------------
--------------------------------------------------------------------------------------------


LEAD:
---16-16----18-16-13-11-9-13-13---------8-10-10------12-10-8------8-------------------------------------------------------------
----------------------------------8-10-----------------------10-8----------------------------------------------
13--------------------------------------------------------------------------------------------
--------------------------------------------------------------------------------------------
--------------------------------------------------------------------------------------------
--------------------------------------------------------------------------------------------

Copyrights
Author: ?
Composer: ?
Publisher: ?
More details
Language: English

Reactions

CommonCrawl [Bot]

Follow Muzikum