Misc
Wildwood Flower (Guitar tab)

Hello this is my first tab to this easy song. Here it goes

Normal Tuning

REPEAT THIS x 2

E--------------------------------------------

B-------------1------------------------------

G-------0-0h2--------------------------------

D--2-3------------2--2h3--2--0--0--2-0-------

A--------------------------------------2--3--

E--------------------------------------------

BRIDGE

EBG ONLY NEEDED
E--------0--0-----------------------

B---1--3------3--1-------------1----

G---------------------0-0-0h2----2-0


FINAL PART



G-----------------0-0---------------

D----0-2-0-2-0-2------2-0-0h2-0-----

A--3----------------------------2--3

E-----------------------------------

Copyrights
Author: ?
Composer: ?
Publisher: ?
More details
Language: English

Reactions

CommonCrawl [Bot]

Follow Muzikum