Zdob Si Zdub
Myzika (Guitar tab)

Intro:
e------------------------------------------------------------
b-----------------------------------------------------------
g-9-9-7-9-9-7-9-9-7-9-9-7--6-6-6-7-7-7-----------9-9-9
d-7-7-7-7-7-7-7-7-7-7-7-7--7-7-7-7-7-7--10-10-10-9-9-9
a---------------------------------------10-10-10-7-7-7
e----------------------------------------8--8--8-------

Verse is something like this:
e-5----3-----5-----3
b-5----3-----5-----3 etc
these two �chords" go along�

Chorus:
all of them are power chords
A D C E
A D C E
A D E E
A D E E

play it twice

And now the fun: :-)
Nirvana riff:
a----------3---3----------5---
e-3-3-4-5-5--5-5-4-3---3-3

Deep Purple riff
d---------------------5/7-10\8
a---3---------3-5-3---5/7-10\8
e-5--5-3-0-3-5-5----5-3/5--8\5

I think everyone can figure out the bass riffs, if not, just mail me:
dan-online2108@go.ro or adr1an0dan@gmx.net

Copyrights
Author: ?
Composer: ?
Publisher: ?
More details
Language: English

Reactions

CommonCrawl [Bot]

Follow Muzikum