The Hives

The Hives - Supply And Demand guitar tab

Your rating:
THE HIVES ----------- SUPPLY AND DEMAND
CD: VENI VIDI VICIOUS
tabbed by: dave schneider

riff 1
 E|------------------------------------------------3----|
 B|------------------------------------------------3----|
 G|--5-----3--5-----3--5-----3--5-----3--5---------4----|
 D|--5-----3--5-----3--5-----3--5-----3--5---------5----|
 A|--3-----1--3-----1--3-----1--3-----1--3---------5----|
 E|------------------------------------------------3----|

riff 2
 E|----------------------------------------3-3------------------------|
 B|----------------------------------------3-3-44444444---------------|
 G|--5-----3--5-----3--5-----3--5-----3--5-4-4-44444444---------------|
 D|--5-----3--5-----3--5-----3--5-----3--5-5-5-44444444-2-2--2-2--2-2-|
 A|--3-----1--3-----1--3-----1--3-----1--3-5-5-22222222-2-2--2-2--2-2-|
 E|----------------------------------------3-3----------0-0--0-0--0-0-|

riff 3
 E|----------0---------------|--------------------------------------|
 B|--2-2------0--------------|--2-2---------------------------------|
 G|--2-2-2/4---0-------------|--2-2-----5-5-4-4---------------------|
 D|--2-2---------2-2--2-2----|--2-2-5-5-5-5-4-4-2-2--2-2--2-2--2-2--|
 A|--0-0---------2-2--2-2-3--|--0-0-5-5-3-3-2-2-2-2--2-2--2-2--2-2--|
 E|--------------0-0--0-0----|------3-3---------0-0--0-0--0-0--0-0--|

riff 4
 E|---------------------------------------------------3----|
 B|---------------------------------------------------3----|
 G|--5----8-10----------8-10----------8-10------------4----|
 D|--5----8-10---8-10---8-10---8-10---8-10---8-10-----5----|
 A|--3----6--8---8-10---6--8---8-10---6--8---8-10-----5----|
 E|--------------6--8----------6--8----------6--8-----3----|

riff 5
 E|---------------------------------------------3-3------------------|
 B|---------------------------------------------3-3------------------|
 G|-5---8-10----------8-10----------8-10--------4-4-4444444----------|
 D|-5---8-10---8-10---8-10---8-10---8-10---8-10-5-5-4444444-22-22-22-|
 A|-3---6--8---8-10---6--8---8-10---6--8---8-10-5-5-2222222-22-22-22-|
 E|------------6--8----------6--8----------6--8-3-3---------00-00-00-|

listen to the song to find out how many times to play each part



�if you missed it the first time, it�s 9 to 10 that you will again.�

					HOWLIN� PELLE
						&
					  THE HIVES
Get this song at:
bol.com
amazon.com

Copyrights:

Author: Randy Fitzsimmons

Composer: ?

Publisher: Burning Heart Records

Details:

Released in: 2000

Language: English

Appearing on: Your New Favourite Band (2001)

Share your thoughts

This form is protected by reCAPTCHA and the Google Privacy Policy and Terms of Service apply.

0 Comments found