Sum 41

Sum 41 - Welcome To Hell guitar tab

Your rating:
tuning: standard

Intro
  /                    \
e |--------------------|
B.|--------------------|.
G |--------------------|
D |88-6-88-6--------666|
A.|66-4-66-4---44-4-444|.
E |------------22-2----|
  \                    /

Verse
  /                                     \
e |-------------------------------------|
B.|-------------------------------------|.
G |-------------------------------------|
D |88-6-88-6-88-6-88-6------666------444|
A.|66-4-66-4-66-4-66-4-44-4-444-44-4-666|.
E |--------------------22-2-----22-2----|
   \                                    /

Chorus
  /                    \
e |--------------------|
B.|--------------------|.
G |--------------------|
D |44-4------66-6-88-8-|
A.|22x2-44-4-44x4-66x6-|.
E |-----22x2-----------|
   \                    /

outro

e|-------------------|
B|-------------------|
G|-------------------|
D|888-4-6-4-888-4-6-4|
A|666-2-4-2-666-2-4-2|
E|-------------------|

with this song it will be difficult to play with the
Cd so listen to the song first then play the song
Get this song at:
bol.com
amazon.com

Copyrights:

Author: ?

Composer: ?

Publisher: Universal Music

Details:

Released in: 2004

Language: English

Appearing on: Chuck (2004) , Go Chuck Yourself (2006)

Share your thoughts

This form is protected by reCAPTCHA and the Google Privacy Policy and Terms of Service apply.

0 Comments found