Sugar Ray
When Its Over (Guitar tab)

Date: Fri, 27 Jul 2001 10:58:03 -0400
From: "Marcus Barefield"
Subject: s/sugar_ray/when_its_over.tab

Song: When It's Over
Artist: Sugar Ray
Tabbed by: Marcus (marc52jazz@hotmail.com)


I played some other tabs of this song that sounded wrong, so I decided to
figure the song out myself. Here it is.

For acoustic guitar-

Listen to the song for the rythm:
e|---------------------------
B|---------------------------
G|-1-1-1-1--2-2-2--4---------
D|-2-2-2-2--4-4-4--6--------- (x2)
A|---------------------------
E|---------------------------


e|---------------------------
B|---------------------------
G|-2-2-2-2--4-4-4--6---------
D|-4-4-4-4--6-6-6--7--------- (x2)
A|---------------------------
E|---------------------------

Please feel free to e-mail me any comments or questions. Thanks.

Copyrights
Author: ?
Composer: ?
Publisher: ?
More details
Language: English

Reactions

CommonCrawl [Bot]

Follow Muzikum