Led Zeppelin
Stairway To Heaven Bridge Solo (Guitar tab)

I figured this out because i was bored.
You can play it on the octave as well, on the 12th fret and whatever.


E---------------------
B--------1-0----------
G--2-2-2-----2-0h2----
D---------------------
A---------------------
E---------------------
And as we wnd on down the road.

E---------------------
B--------1-0---0-1p0--
G--2-2-2-----2-------2
D---------------------
A---------------------
E---------------------
Our shadows taller than our soul.

E--------0------------
B----------3-1-0-0h1--
G--2-2-2------------2-
D---------------------
A---------------------
E---------------------
There walks a lady we all know.

E--------0------------
B----------3-1-0h1----
G--2-2-2-----------2--
D---------------------
A---------------------
E---------------------
Who shines white light and wants to show.

E---------------------
B--------1-0---0------
G--2-2-2-----2---4p2-2
D---------------------
A---------------------
E---------------------
How everything still turns to gold.

E----------------------
B--------1-0---00------
G--2-2-2-----2----4p2-2
D----------------------
A----------------------
E----------------------
And if you listen very hard.

E---------------------
B--------1-0---1------
G--2-2-2-----2---0h2--
D---------------------
A---------------------
E---------------------
The tune will come to yo at last.

E---------------------------
B--------3h5-3-1-3-5p3-1p0-0
G--2-2-2--------------------
D---------------------------
A---------------------------
E---------------------------
When all are one and oe is all.

E---------------------
B--------1---1-1--1s0-
G--2-2-2---0----------
D---------------------
A---------------------
E---------------------
To be a rock and not to roll.

NO LYRICS

E--------------------------------
B-1-3-5p3-1-0-0-1-0-------1------
G-------------------2-0-0---0----
D--------------------------------
A--------------------------------
E--------------------------------

Copyrights
Author: ?
Composer: ?
Publisher: ?
More details
Language: English

Reactions

CommonCrawl [Bot]

Follow Muzikum