Led Zeppelin
Over The Hills And Far Away 4 (Guitar tab)

Intro:
e|-----------------3-3--------------------------2-2-|
B|-----------------3-3-3------------------------3-3-|
G|-0h2p0-----0--0--0-0-0----0h2p0---0-4p2p0-----2-2-| Play 2 times
D|-------4p0----0----0-0----------4---------0---0-0-|
A|--------------2------2-2--------------------------|
E|--------------3--------3--------------------------|
Then...

e|-----------------------------------------|
B|--------------3-3-3-----3-3-3-----3--/-5-|
G|-0h2p0--------0-0-0-----0-0-0-----0--/-0-|
D|-------4p0----2-2-2-----0-0-0-----3--/-5-|
A|-----------3--3-3-3--2--2-2-2--1--1--/-3-|
E|-----------------------------------------|

Then the lyrics open up with this...
e|------------------3-3----------------0h2-----2--2-2-2-|
B|------------------3-3-----3--5p3-5p3---------3--3-3-3-|
G|-0h2p0-----0------0-0--/4--------------------2--2-2-2-|
D|-------4p0--------0-0------------------------0--0-0-0-|
A|------------------2-2---------------------------------|
E|------------------3-3---------------------------------|

Copyrights
Author: ?
Composer: ?
Publisher: ?
More details
Language: English

Reactions

CommonCrawl [Bot]

Follow Muzikum