Led Zeppelin
Over The Hills And Far Away Ver 10 (Guitar tab)

Song: "Over The Hills And Far Away"
Band: Led Zeppelin
Album: Houses of The Holy (1973)
Words and Music by Jimmy Page and Robert Plant

Chord Index:

E B G D A E

G 3 0 0 0 2 3
D 2 3 2 0 X X
C 0 1 0 2 3 X
Cadd9 0 3 0 2 3 X
G/B 0 3 0 0 2 X
Bb6 0 3 0 3 1 X


Standard Tuning
Moderate Rock (1/4=96)

let ring G
E|-------------||--------------------3---------------------------------|
B|-------------||-----------0--------0-------0-------------------------|
G|--0h2p0------||*-0--------0----------------0----0-----0h2p0-----0----|
D|--------4p0--||*----------0---------------------0------------4-------|
A|-------------||-----------2---------------------2--------------------|
E|-------------||-----------3---------------------3--------------------|
*Doubled by a 12-string acoustic 2nd time

D G
E|-------------------2-----2---2---2---2--------------|-----3--3---3-----------------------|
B|-------------------3-----3---3---3---3--------------|-----0--0---0-----------------------|
G|--4p2p0------------2-----2---2---2---2---0h2p0------|-0---0-------------0h2p0------0-----|
D|---------0---------0----------------------------4p0-|-----0---------------------4--------|
A|----------------------------------------------------|-----2------------------------------|
E|----------------------------------------------------|-----3---------3--------------------|


D G
E|--------------2-------------------------|-----------3--3------3------------------------|
B|--------------3-------------------------|-------0---0--0------0-----0------------------|
G|--4p2p0-------2-------------------------|-------0----------------0-----0h2p0------0----|
D|--------0-----0--0--0--------2-----0--2-|--0----0----------------0-------------4-------|
A|--------------0--------0--2-----2-------|-------2--------------------------------------|
E|----------------------------------------|-------3--------------------------------------|

1.------------------------------------
D C Cadd9 G/B
E|--------------2-----2--2----------------|-------------------------------------|
B|--------------3-----3--3----------------|------3----3--3--3---3---3---3-------|
G|--4p2p0-------2-----2--2----0h2p0-------|------0----------0---0---0---0-------|
D|--------0-----0-----0--0-----------4p0--|-2----2----------0-------0---0-------|
A|----------------------------------------|-3----3----------2-------2---2--0----|
E|----------------------------------------|-------------------------------------|

--------------------------------------------------------------------------------------------|
Bb6 C
E|-------------------------------------------|----------------------0-----------------------||
B|--------3--3----3------3-----3--3--3--3--3-|-3-/-5--5--5--5---5---5------5----------------||
G|--0-----0--0----0------0-----0--0--0--0--0-|-0------0--0--0---0-------------0h2p0--------*||
D|--3-----3--3----3------3-----3--3--3--3--3-|-3-/-5--5--5--5---5------5---5---------4p0---*||
A|--1-----1--1----1------1-----1--1--1--1--1-|-1-/-3--1--1--3---3------3---3----------------||
E|-------------------------------------------|----------------------------------------------||

2.------------------------------------
N.C.(C) Cadd9 G/B N.C D N.C.(G6)
E|------------------------------------|-------------2--2--2---0----------------------------|
B|---------3--------------------------|-------------3--3--3---3----------------------------|
G|------X--0----0---------------------|-------X--2--2--2--2---0-------0--------------------|
D|---------2--------------------------|--2p0------------------0----------------------------|
A|--3------3----2---------------2--0--|-----------------------------------------0--2p0-----|
E|------------------3---3----3--------|-------------------------------3---3----------------|

Damn, that took a long time. By the way, this is the absolutely most accurate version of the song on the site.

Copyrights
Author: ?
Composer: ?
Publisher: ?
More details
Language: English

Reactions

CommonCrawl [Bot]

Follow Muzikum