Led Zeppelin
Whole Lotta Love Solo Ver 2 (Guitar tab)

Led Zeppelin � Whole Lotta Love Solo (corect)
Written By � Geoff
You just have to play im time with the song

Intro

E|--------------------------------------------------------------------|

B|--------------------------------------------------------------------|

G|--0-0-2-----2------2------2------2------2------2--------------------|

D|-2-2----------------------------------------------------------------|

A|--------------------------------------------------------------------|

E|-------0-0-0--0-0-0--0-0-0--0-0-0--0-0-0--0-0-0---------------------|

Solo

E|--------12----------------------------------------------------------|

B|------12--15-12--------------------------3--------------------------|

G|----14b---------15p14p12-14p12-14b---2/4---4p2-0-2-p0---------------|

D|------------------------------------------------------2p0-2p0-------|

A|--------------------------------------------------------------2-----|

E|-0-0------------------------------------------------------------0---|


E|------12------15----------------------------19b-19-18-17------------|

B|----12�15b-15b�15b-17-20-20b--------20p17-17------------20p17-20-17-|

G|-14b------------------------21-21p17--------------------------------|

D|--------------------------------------------------------------------|

A|--------------------------------------------------------------------|

E|--------------------------------------------------------------------|


E|------------------19------------------------------------------------|

B|-17-19-19b-19b-19b--17----------------------------------------------|

G|--------------------------------------------------------------------|

D|--------------------------------------------------------------------|

A|--------------------------------------------------------------------|

E|--------------------------------------------------------------------|

Chorus

E|--------------------------------------------------------------------|

B|--------------------------------------------------------------------|

G|--------------------------------------------------------------------|

D|-0-0-0-0-0-9/-----play four times-----------------------------------|

A|----------7---------------------------------------------------------|

E|--------------------------------------------------------------------|

Copyrights
Author: ?
Composer: ?
Publisher: ?
More details
Language: English

Reactions

CommonCrawl [Bot]

Follow Muzikum