Led Zeppelin
You Shook Me Ver 3 (Guitar tab)

"You Shook Me"
Performed by Led Zeppelin
(From the Atlantic Recording Led Zeppelin)

Written by Willie Dixon/J.B Lenoir
_________________________________________________________________
Guitar:Solidbody Electric
Gain Level:8
Bass/Mid/Treble Level:4/6/5
Effects:Echoplex

Intro:
|-------------------------------|---------------------------------------|
|-17-17-15-17--15-12------------|--\17-17-16-17-15--12--10-12-10-[8]/9--|
|--------------------14-12------|---------------------------------------|
|--------------------------14\0-|---------------------------------------|
|-------------------------------|---------------------------------------|
|-------------------------------|---------------------------------------|

|-------------------------------------------|
|---------9--------------------9----4/3/4---|
|-9-----9---9-12---11--9-8-9---9----4/3/4---|
|-9---9-------------------------------------|
|-------------------------------------------|
|-------------------------------------------|

Verse:
|-----------------------------------|------------------------------------|
|-----------------------------------|------------------------------------|
|-----------------------------------|---------------12-------------------|
|--2--7--5--2--2--2--2--2---7--5--2-|------12---14-------14--------------|
|--2--7--5--2--2--4--4--2---5--5--2-|---14---------------------12\0------|
|--0--5--3--0--0--0--0--0---5--3--0-|------------------------------------|
You Know You Shook Me, You shook me all night long

|-------------------------|----------------------------------------------|
|-------------------------|----------------------------------------------|
|-------------------------|----------------12----------------------------|
|--2--7--5--2--2--2--2--2-|-------12--14--------14--12-14\0--------------|
|--2--7--5--2--2--4--4--2-|--14------------------------------------------|
|--0--5--3--0--0--0--0--0-|----------------------------------------------|
You know you shook me baby

|-------------------------------|----------------------------------------|
|-------------------------------|----------------------------------------|
|--------------12---------------|----------------------------------------|
|------12---14------14----12\0--|--2--7--5--2--2--2--2--2----------------|
|-14----------------------------|--2--7--5--2--2--4--4--2----------------|
|-------------------------------|--0--5--3--0--0--0--0--0----------------|
You shook me all night long

|------------------------------------------------------------------------|
|--12-------12----15-12----------17-15-17-15-----------------------------|
|------14------14-------14-12\0--------------16-14-16-14--12^------------|
|---------------------------------------------------------------14-------|
|------------------------------------------------------------------------|
|------------------------------------------------------------------------|
You shook me so hard baby Baby, baby please come home

|-----------------------|
|-----------------------|
|-------14-12^----------|
|----14--------14^-12\0-|
|-14--------------------|
|-----------------------|

VERSE:
|-----------------------------------|------------------------------------|
|-----------------------------------|------------------------------------|
|-----------------------------------|---------------12-------------------|
|--2--7--5--2--2--2--2--2---7--5--2-|------12---14-------14--------------|
|--2--7--5--2--2--4--4--2---5--5--2-|---14---------------------12\0------|
|--0--5--3--0--0--0--0--0---5--3--0-|------------------------------------|
I have a bird that whistles, and I have a bird that sings.

|-------------------------|----------------------------------------------|
|-------------------------|----------------------------------------------|
|-------------------------|----------------12----------------------------|
|--2--7--5--2--2--2--2--2-|-------12--14--------14--12-14\0--------------|
|--2--7--5--2--2--4--4--2-|--14------------------------------------------|
|--0--5--3--0--0--0--0--0-|----------------------------------------------|
I have a bird that whistles,

|-------------------------------|----------------------------------------|
|-------------------------------|----------------------------------------|
|--------------12---------------|----------------------------------------|
|------12---14------14----12\0--|--2--7--5--2--2--2--2--2----------------|
|-14----------------------------|--2--7--5--2--2--4--4--2----------------|
|-------------------------------|--0--5--3--0--0--0--0--0----------------|
and I have a bird that sings

|-----------------------------------------22^-22^-22^-22^-22^-22--19--------|
|------------------15--12--------------------------------------------22-----|
|-14-14^-14-14^-14--------14--12\0------------------------------------------|
|---------------------------------------------------------------------------|
|---------------------------------------------------------------------------|
|---------------------------------------------------------------------------|
I have a bird won't do nothin' AAAAAHHH

|-19--------------------------------------------------------19-|
|----22-19^-----------22-20-22-22-20^-----------------20-22----|
|-----------21-----21-----------------21-19-21-19--21----------|
|---------------21---------------------------------------------|
|--------------------------------------------------------------|
|--------------------------------------------------------------|
Buy a diamond ring yeah

Organ/Harmonica/Guitar Solos

|---------------------------------------------------------------------------|
|---------------------------------------------------------------------------|
|---------------------------------------------------------------------------|
|--2-7-5-2-2-2-2-2-2-7-5-2-2-2-2-2-2-7-5-2-2-2-2-2-2-2-7-5-2-2-2-2-2-2-2-2--|
|--2-7-5-2-2-4-4-2-2-5-5-2-2-4-4-2-2-5-5-2-2-2-4-4-2-2-5-5-2-2-2-4-4-2-2-2--|
|--0-5-3-0-0-0-0-0-0-5-3-0-0-0-0-0-0-5-3-0-0-0-0-0-0-0-5-3-0-0-0-0-0-0-0-0--|

|---------------------------------------------------------------------------|
|---------------------------------------------------------------------------|
|---------------------------------------------------------------------------|
|-5-5-5-5-5-5-5-5-5-5-5-5-5-5-5-5-5-5-2-2-2-2-2-2-7-5-2-2-2-2-2-2-2-2-3-7-9-|
|-7-5-7-7-9-9-7-7-5-7-3-7-9-9-7-3-7-3-2-2-2-4-4-2-5-5-2-2-2-4-4-2-2-2-3-7-9-|
|-7-3-7-7-7-7-7-7-3-7-3-7-7-7-7-3-7-3-0-0-0-0-0-0-5-3-0-0-0-0-0-0-0-0-5-5-7-|

|-7-------------------------------------------------------------------------|
|-7-------------------------------------------------------------------------|
|-8-------------------------------------------------------------------------|
|-9---------------------7---------5-5---------7-7-5-5-4-4-2-2---------------|
|-9---------------------7-----5-7-----7-5-7-7-7-7-5-5-4-4-2-2---------------|
|-7---------------------5--5-7----------------5-5-3-3-2-2-0-0---------------|

VERSE:
|-----------------------------------|------------------------------------|
|-----------------------------------|------------------------------------|
|-----------------------------------|---------------12-------------------|
|--2--7--5--2--2--2--2--2---7--5--2-|------12---14-------14--------------|
|--2--7--5--2--2--4--4--2---5--5--2-|---14---------------------12\0------|
|--0--5--3--0--0--0--0--0---5--3--0-|------------------------------------|
You know you shook me, baby, You shook me all night long.

|-------------------------|----------------------------------------------|
|-------------------------|----------------------------------------------|
|-------------------------|----------------12----------------------------|
|--2--7--5--2--2--2--2--2-|-------12--14--------14--12-14\0--------------|
|--2--7--5--2--2--4--4--2-|--14------------------------------------------|
|--0--5--3--0--0--0--0--0-|----------------------------------------------|
I know you really, really did, baby.

|-------------------------------|----------------------------------------|
|-------------------------------|----------------------------------------|
|--------------12---------------|----------------------------------------|
|------12---14------14----12\0--|--2--7--5--2--2--2--2--2----------------|
|-14----------------------------|--2--7--5--2--2--4--4--2----------------|
|-------------------------------|--0--5--3--0--0--0--0--0----------------|
I said you shook me. You shook me all night long.

|-------------------------------------------15^-15-15^-12-------------------|
|---------------------------------15^-12-15---------------------------------|
|--14^-14-12-14-12-14-12-14^------------------------------------------------|
|---------------------------------------------------------------------------|
|---------------------------------------------------------------------------|
|---------------------------------------------------------------------------|
You shook me soo hard baby

|---------------15^-15^-----------------15^-15^15----------15^-15-12--12----|
|-------------------------------------------------------------------15--15--|
|---------------------------------------------------------------------------|
|---------------------------------------------------------------------------|
|---------------------------------------------------------------------------|
|---------------------------------------------------------------------------|
Babe.... Ah Ahh... Ah Ahhhh...

|--------15^-15-12--12-------------17^-12-12-------17^v^-12-12--------------|
|-----------------15--15----------------------------------------------------|
|---------------------------------------------------------------------------|
|---------------------------------------------------------------------------|
|---------------------------------------------------------------------------|
|---------------------------------------------------------------------------|
Ah Ahhhhh... Ah Ahhhh... Ah Ahhh...

Coda:
|-----------------------------------------------------12-15-15^v^v^v^-------|
|-----------------------------------------------12-15-----------------------|
|---14^v^v^-----------------------------------------------------------------|
|---------------------------------------------------------------------------|
|---------------------------------------------------------------------------|
|---------------------------------------------------------------------------|
You shook me all night long...

|-15-12----12\0--------------------------------------------|
|-------15-------------------------------------------------|
|----------------------------------------------------------|
|------------------2/7\2-----------------------------------|
|------------------2/7\2-----------------------------------|
|------------------0/5\0-----------------------------------|
You shook me all night long.

Copyrights
Author: ?
Composer: ?
Publisher: ?
More details
Language: English

Reactions

CommonCrawl [Bot]

Follow Muzikum