Led Zeppelin
The Ocean Plz Rate Ver 2 (Guitar tab)

Intro (Play this during the first 3x)
-------------------------|---------------------------------------|
-------------------------|---------------------------------------|
-------------------------|---------------------------------------|
---77---5----------------|---------5----------7-----7------------|
-------------7-----------|-5---7------5---7------4------5----7---|
----------------8--------|---------------------------------------|

(Play at the 4th time)
----------------------------------------|
----------------------------------------|
----------------------------------------|
----------5----------7-------7----------|
---5---7-----5---7-------4-------5----7-|
----------------------------------------|

1st Verse (Repeat) 0:28
-------------------------------------------------------------|
---7---7---7---7-----5---5---5---5----2------2---------7---7-|
---5---5---5---5-----5---5---5---5----2------2---------5---5-|
---7---7---7---7-----5---5---5---5----2------2�--5/7---7---7-|
---5---5---5---5-----3---3---3---3----0------0---3/5---5---5-|
------------------------------------------3------------------|

0:51 (Repeat)
------------------------------------------------------------------|
------------------------------------------------------------------|
------------------------------------------------------------------|
-5h7�5h7---5-------------------------5--------7-----7-------------|
--------------7-----------------5�7-----5---7----4-----5----7-----|
----------------8-x-7-7-7-7-7-7-----------------------------------|
. . . . . . . . . . . . .
2nd Verse 1:10 (Repeat)
----------------------------------------------------------------------|
--7�-7�-7�-7-----5�-5�-5-�5----2------2---------7---7--------10\------|
--5�-5�-5�-5-----5�-5�-5�-5----2------2---------5---5--------10\------|
--7�-7�-7�-7-----7�-7�-7�-7----2------2�-5---7�-7---7--------10\------|
--5�-5�-5�-5-----5�-5�-5�-5----0------0�-3---3�-5---5-----------------|
-----------------------------------3----------------------------------|

Guitar Solo (1:31)
During this part, its played with 2 guitars. Guitar 1 plays the solo and Guitar 2 plays the intro riff.

Full full full
-------------------------------------|-------------------------8----|
-5^---5^~~~~~~~~(5)------------------|----------------------8-----10|
-7^---7^~~~~~~~~(7)-7^-(7)-5---------|--------5>--------7/9---------|
-----------------------------5-7-7~~-|------5----7�-7~~~------------|
-------------------------------------|-5/7--------------------------|
-------------------------------------|------------------------------|
Full (Hold bend)
--------8-----------------------|-----15�15-----------------5-------|
-10~~~~---10-10~~~\/19----------|-15^-------15^-13--------5---8p5---|
-----------------------/17\9/14-|-----------------14~~\/6-----------|
--------------------------------|-----------------------------------|
--------------------------------|-----------------------------------|
--------------------------------|-----------------------------------|
(�) (�)
--------------------------------|------------------------------------|
-8---8�-8~~~~-5-----------------|-------------------------------5^---|
-0--------------7^h5-7-5--------|---------5------------5--------5^---|
-------------------------5�7-7~~|-5----5-----5h7-7-7~~----7�-7-------|
--------------------------------|-5h7--------------------------------|
--------------------------------|------------------------------------|
(Bend Full)
------------------------8>-------|----15-15---15-15---15-15---15----15|
----------5�-5-------8-----8h10\-|-15^-----15^-----15^-----15^---15^--|
----------5�-5-----9-------------|------------------------------------|
--7~~5/7~~------7----------------|------------------------------------|
---------------------------------|------------------------------------|
---------------------------------|------------------------------------|

(1:53) Repeat
-------------------------------------------------------|
---7�7�7�7---5�5�5�5--------------5�7�7�7-----/13\-----|
---5�5�5�5---4�4�4�4---7---6---7�-5�5�5�5-----/17\-----|
-----------------------5---4---5-----------------------|
-------------------------------------------------------|
-------------------------------------------------------|

After the Breakdown (�la la lalala�) Repeat the 2nd verse on 2:37 and
At 2:57, repeat the main �Intro� riff but instead of palm muting, just
Mute the strings

Outro 3:17 (This part is played with 2 guitars)
Gtr. 1
-------10----12^---12---10------------------------------------------|
----10----------------------12^>~~~~~~(12)---10------12^--12-10---12|
-11----------------------------------------------11-------------11--|
--------------------------------------------------------------------|
--------------------------------------------------------------------|
--------------------------------------------------------------------|
Gtr. 2 (Repeat this part during the next measure)
----------------------------------------------------------|
-----7-7-7-7-7-7-7-7-7-7-7-7---9-9-9-9-9-9-9-9-9-9-9-9----|
-----7-7-7-7-7-7-7-7-7-7-7-7---9-9-9-9-9-9-9-9-9-9-9-9----|
-----7-7-7-7-7-7-7-7-7-7-7-7---9-9-9-9-9-9-9-9-9-9-9-9----|
----------------------------------------------------------|
----------------------------------------------------------|

Gtr. 1
------------------------------------------10---|
--10------10----------------------------10-----|
-----------------11^----11---9~~~\----11-------|
-----------------------------------------------|
-----------------------------------12----------|
-----------------------------------------------|
Gtr. 1
---12^----12---10---------------------10---11---12--------------------|
-------------------12^--12-10---10�12^-------------12^--12-10---12�-10|
------------------------------11-----------------------------11---11--|
----------------------------------------------------------------------|
----------------------------------------------------------------------|
----------------------------------------------------------------------|
Gtr. 2 (Repeat this part during the next measure)
-----------------------------------------------------------|
-----7-7-7-7-7-7-7-7-7-7-7-7----9-9-9-9-9-9-9-9-9-9-9-9----|
-----5-5-5-5-5-5-5-5-5-5-5-5----9-9-9-9-9-9-9-9-9-9-9-9----|
-----7-7-7-7-7-7-7-7-7-7-7-7----9-9-9-9-9-9-9-9-9-9-9-9----|
-----------------------------------------------------------|
-----------------------------------------------------------|
Gtr. 1
----------------------------------------------------------------------|
-12�-10~~~\-----------------------------------------------------------|
-------------11^----11�-9----11----9~~~~------11^---11-----9\---------|
--------------------------11----11-------11---------------------------|
----------------------------------------------------------------------|
----------------------------------------------------------------------|

Gtr. 1
-------------------------------------------------------------------10-|
-------------------------------------------------------------------10-|
-/6---4------------------------4h6�-4------------------------------11-|
---------7---6-------------------------7---6-----------------------12-|
---------------/9�-7--------------------------9---7-------------------|
---------------------/9�-7---7------------------------/9---7----------|
Gtr. 2 (2x)
---------------2--------------------------|
-----2---------3--------------------------|
-----2---------2---2---1~~~~~---2---1~~~~-|
-----2----0----0---2---2~~~~~---2---2~~~~-|
--0�-0----0--------2---2~~~~~---2---2~~~~-|
-------------------0---0~~~~~---0---0~~~~-|

�Doo wop de do de do de.. . �
--10----12^----------12^-(12)�-12~~~~~~~~-10--------------------------|
--10-----------------------------------------12^---12�10�12~~~~~10�-12|
--11--------------------------------------------------------------11--|
--12------------------------------------------------------------------|
----------------------------------------------------------------------|
----------------------------------------------------------------------|

-------------------------------12^---12�10----------------14^--14-12--|
-10h12---------------------10--------------10----12>--14------------12|
-------11�-9---9h11�-9---11-------------------------------------------|
-------------11--------12---------------------------------------------|
----------------------------------------------------------------------|
----------------------------------------------------------------------|

-15^--15^~~~----------17-16---17-16---17-16----17-16------------------|
------------15^--15^--------17-----17-------17-------17---------------|
--------------------------------------------------------/6-4----------|
-------------------------------------------------------------7-6------|
-----------------------------------------------------------------/9-7-|
----------------------------------------------------------------------|

----------------------------------------------------------------------|
------------------9h10---9--------------------------------------------|
-----------------------------11---9~~~--------------------------------|
---------------------------------------9h11---9-------(9)-------(9)~~~|
----(7)----------------------------------------------------12---------|
---------9�7~~~~~-----------------------------------------------------|

--------------10h12p10-10----------------12h14p12--------------|
--------10h12----------12-12p10------2h14---------12-14-12-----|
-/11�11----------------------11/12-------------------------13\-|
-/12------------------------------14---------------------------|
---------------------------------------------------------------|
---------------------------------------------------------------|

(2X)
------------10h12p10-10------------------------12h14p12--------------|
------10h12----------12h12p10------------12h14------------13h14p12---|
11----------------------------11/13-------------------------------13\|
---12--------------------------------14------------------------------|
---------------------------------------------------------------------|
---------------------------------------------------------------------|

--------10-----------10---------10----------10/----|
-----10----------10----------10----------10--------|
--12^--------12^---------12^---------12^-----------|
---------------------------------------------------|
---------------------------------------------------|
---------------------------------------------------|

--------12-----------12----------12----------12-----14^\----|
-----12----------12----------12----------12-----------------|
--14^--------14^---------14^---------14^--------------------|
------------------------------------------------------------|
------------------------------------------------------------|
------------------------------------------------------------|

---------------------------------------------------------------------|
---------------------------------------------------------------------|
--6----4~~~~~--------------------------------------------------------|
----------------7---6~~~~--------------------------------------------|
--------------------------9---7----(7)-------------------------------|
-----------------------------------------/9----7~~~~~~~~~------------|

---------------------------------------------------------------------|
-9h10---9------------------------------------------------------------|
-------------11----9~~~~~~-------------------------------------------|
----------------------------9h11---9---(9)------------9~~~~~~~~>-----|
----------------------------------------------12---------------------|
---------------------------------------------------------------------|


That�s it. It took along time to figure out this tab but it was worth it. Have Fun.

Copyrights
Author: ?
Composer: ?
Publisher: ?
More details
Language: English

Reactions

CommonCrawl [Bot]

Follow Muzikum