Led Zeppelin
Ten Years Gone Ver 4 (Guitar tab)

e------------------|-------------------|----------0--------|-----------------
B-----2--0---0--3--|---3---------3-----|-------2-------0-3-|-3-3-3-----------
G-----2----2----2--|---2-------2---2---|-2-----2-----2---2-|-2----2----------
D-----2---------3--|---3-----3-------3-|-2-----2---------3-|-3-----3---------
A--0--0---------0--|---0--0------------|-0--0--0---------0-|-0---------------
E------------------|-------------------|-------------------|-----------------

Part 2:
x = mute strings
e----------------------------------|-7-7-7-7-x-x-----------------------------
B--2--2--x(2)--x(2)--1-1-x(1)-x(1)-|-8-8-8-8-x-x-7-7-7-7-7-5-----------------
G--2--2--x(2)--x(2)--2-2-x(2)-x(1)-|-9-9-9-9-x-x-6-6-6-6-6-4-----------------
D--2--2--x(2)--x(2)--1-1-x(2)-x(1)-|-9-9-9-9-x-x-7-7-7-7-7-5-----------------
A--0--0----------------------------|-----------------------------------------
E----------------------------------|-----------------------------------------

Part 3: heavy guitar sound with distortion (remember drop D tuning)
Page overdubs to get that wall of sound here. I think a sitar was also
overdubbed.

lead in riff
e------------------------------|--------------------|-----------------------
B------------------------------|---0----------------|---------2-------------
G-----------------------2--4-2-|-4-4-4--6-2---2-4-2-|-2-2-2-4-2--2-4-2------
D-----------2-3-2-------2--2-2-|-5-5-5--5-4---4-4-4-|-3-3-3-3-2--2-2-2------
A------0-3----------0----------|------------0-------|-----------0-----------
E--2-3-------------------------|--------------------|-----------------------



e--------------------|-----------------------
B---0----------------|---------2-------------
G-4-4-4--6-2---2-4-2-|-2-2-2-4-2--2-4-2------
D-5-5-5--5-4---4-4-4-|-3-3-3-3-2--2-2-2------
A------------0-------|-----------0-----------
E--------------------|-----------------------


e--------------------|-----------------------
B---0----------------|---------2-------------
G-4-4-4--6-2---2-4-2-|-2-2-2-4-2--2-4-2------
D-5-5-5--5-4---4-4-4-|-3-3-3-3-2--2-2-2------
A------------0-------|-----------0-----------
E--------------------|-----------------------

* heavy part ends leads into Part 1
e--------------------|----------------------|-------------------------------
B---0----------------|-------0-2---0---0-3--|--------3----------------------
G-4-4-4--6-2---2-4-2-|-2-2-2---2-----2---2--|------2---2--------------------
D-5-5-5--5-4---4-4-4-|-3-3-3---2---------3--|----3-------3------------------
A------------0-------|-------------------0--|--0----------------------------
E--------------------|----------------------|-------------------------------

Part 4:

Dmaj7 C/G G
e----------------------|-----------------------------------------------------
B--5--7-7-7-7--7-7--5--|--5--3--5--3--3-3--3-3-3-3---------------------------
G--4--6-6-6-6--6-6--4--|--5--4--5--4--4-4--4-4-4-4---------------------------
D--5--7-7-7-7--7-7--5--|--5--5--5--5--5-5--5-5-5-5---------------------------
A----------------------|-----------------------------------------------------
E----------------------|-----------------------------------------------------

Em7 >>>>> Dmaj7
e-0--0-0-0-0-0-0-0-0-|-0-2--2--2--|------------------------------------------
B-5--5-5-5-5-5-5-5-3-|-3-2--2--2--|--5-7-7-7-7--7-7-7-7----------------------
G-4--4-4-4-4-4-4-4-4-|-4-2--2--2--|--4-6-6-6-6--6-6-6-6----------------------
D-5--5-5-5-5-5-5-5-5-|-5-4--0--0--|--5-7-7-7-7--7-7-7-7----------------------
A--------------------|------------|------------------------------------------
E--------------------|------------|------------------------------------------

>>>>>
C/G G Em9 Dmaj7
e--------------------|-----------0-0-------------|----2----------------------
B--5--5--5--3--------|--0-0-3-3--3-3--3-3--3--0--|-0--2----------------------
G--5--5--5--4--4--4--|--0-0-0-0--0-0--0-0--0--0--|-0--2----------------------
D--5--5--5--5--5--5--|--4-4-4-4-------4-4--4-----|-------2--2----------------
A--------------------|---------------------------|-------0--0----------------
E--------------------|---------------------------|---------------------------

e-0--2--2--0--|----------------|------------------------0-|0-----------------
B-0--2--2--0--|-5--5-5-3--3--3-|-0-0--0-0--0-0--0-0-0-0-3-|3---7--7-----------
G-0--2--2--0--|-5--5-5-4--4--4-|-0-0--0-0--0-0--0-0-0-0-4-|4---6--6-----------
D-------------|-5--5-5-5--5--5-|-4-4--4-4--4-4--4-4-4-4-5-|5---7--7-----------
A-------------|----------------|--------------------------|------------------
E---------------------------------------------------------|------------------


Dmaj7
e----------------------|
B--5--7-7-7-7--7-7--7--|
G--4--6-6-6-6--6-6--6--|
D--5--7-7-7-7--7-7--7--|
A----------------------|
E----------------------|
distorted
C/G G Em9 (remember drop d)
e--------------------|-----------0-0-------------|---------------------------
B--5--5--5--3--------|--0-0-3-3--3-3--3-3--3--5--|-5--7--7-7-----------------
G--5--5--5--4--4--4--|--0-0-0-0--0-0--0-0--0--4--|-4--6--6-6-----------------
D--5--5--5--5--5--5--|--4-4-4-4-------4-4--4--5--|-5--7--7-7-----------------
A--------------------|---------------------------|------------5-7-7-9-9-7----
E--------------------|---------------------------|------------5-7-7-9-9-7----


Part 5:
e-------------------|-0---------------|
B-------------------|-0---------------|
G-------------------|-2---------------| Repeat 2 more times and then
D-------------5-5---|-4---------------|
A-7-5-5-5-5-5-5-5-0-|----0-0-5-7-9-9-7|
E-7-5-5-5-5-5-5-5-0-|----0-0-5-7-9-9-7|

e---------------------|
B---------------------|
G---------------------|
D---------------------|
A-7-5-5-5-5-5-5-5-5-7-|
E-7-5-5-5-5-5-5-5-5-7-|

Part 6:

e----------0-|-0--5-5-5-5-5-5-5-0-|-0-0-0-0-0-0-0-0-0-0|-0-------------------
B-----9-9--7-|-7--7-7-7-7-7-7-7-7-|-7-7-7-7-7-7-7-7-7-0|-0-------------------
G-----9-9--6-|-6--6-6-6-6-6-6-6-7-|-7-7-7-7-7-7-7-7-7-0|-0--0--0--0----------
D-----7-7--7-|-7--7-7-7-7-7-7-7-5-|-5-5-5-5-5-5-5-5-5-2|-2-------------------
A-7----------|------------------5-|-5-5-5-5-5-5-5-5-5-3|-3-------------------
E-7----------|------------------5-|-5-5-5-5-5-5-5-5-5--|---------------------


e-4-0-0-0-0-0-0-0--|-0--0--0--0--0--9--7-|-7-7-7-7-7-7-7-0-------------------
B-5-5-5-5-5-5-5-10-|-10-10-10-10-10-10-7-|-7-7-7-7-7-7-7-0-------------------
G-6-6-6-6-6-6-6-11-|-11-11-11-11-11-11-7-|-7-7-7-7-7-7-7-0-------------------
D-6-6-6-6-6-6-6-12-|-12-12-12-12-12-12-5-|-5-5-5-5-5-5-5---------------------
A------------------|-------------------5-|-5-5-5-5-5-5-5---------------------
E------------------|-------------------5---5-5-5-5-5-5-5---------------------


Submitted by greendaytabman

Copyrights
Author: ?
Composer: ?
Publisher: ?
More details
Language: English

Reactions

CommonCrawl [Bot]

Follow Muzikum