Led Zeppelin
Tangerine Ver 5 (Guitar tab)

Led Zeppelin � "Tangerine"
Led Zeppelin III

Am Am sus2 Am sus4
(Am2) (Am4)
N ++++++ ++++++ ++++++
||||1| |||||| ||||1|
1 ++++++ ++++++ ++++++
||23|| ||23|| ||23||
2 ++++++ ++++++ ++++++
|||||| |||||| ||||4|

D D sus2 D sus4
(D2) (D4)
N ++++++ ++++++ ++++++
|||||| |||||| ||||||
1 ++++++ ++++++ ++++++
|||1|2 |||1|| |||1|2
2 ++++++ ++++++ ++++++
||||3| ||||3| ||||34

Picking
E------------------|
B------------------|
G-----0-------0----|
D---2-------0------|
A-3-----3-2-----2-0|
E------------------|

Verse 1:
-------
Am Am4 Am Am2 G G D D D .. D .. D
Mea - sur - ing a sum - mers day

Am Am4 Am Am2 G G D D C C .. C
On - ly find it slips aw - ay, to grey

[Picking] Am Am Am G G D D D D4 D D2 D
.............. The hours, they bring me pain

Chorus:
------
C D G G C
Tangerine, tangerine

D G G C
Living reflection from a dream

D G G C
I was her love, she was my queen

D G G G G D
And now a thousand years between




Verse 2:
-------
Am Am4 Am Am2 G G D D D .. D .. D
Think-ing how it use - d to be

Am Am4 Am Am2 G G D D C C .. C
Does she still re - mem - ber times like these

[picking] Am Am Am G G D D D D4 D D2 D
.............. To think of us a - gain

And I do..

Solo:
----

Am C
E---------------------------------|-8---------------10---10/12\10---|
B-10------------------------------|---------------------------------|
G---------------------------------|---------------------------------|
D---------------------------------|---------------------------------|
A---------------------------------|---------------------------------|
E---------------------------------|---------------------------------|

D F
E-10-------------------------8p7--|-8------------------------10-----|
B---------------------------------|---------------------------------|
G---------------------------------|---------------------------------|
D---------------------------------|---------------------------------|
A---------------------------------|---------------------------------|
E---------------------------------|---------------------------------|

E F E E E F
E-7---------7-7---8--10-----6/7s5-|-7----------7-7--8----10---------|
B---------------------------------|---------------------------------|
G---------------------------------|---------------------------------|
D---------------------------------|---------------------------------|
A---------------------------------|---------------------------------|
E---------------------------------|---------------------------------|

C G D
E-15/17--15------------18/19-18/19|-18/19\s17-17-18/19--19/20--19/20|
B---------------------------------|---------------------------------|
G---------------------------------|---------------------------------|
D---------------------------------|---------------------------------|
A---------------------------------|---------------------------------|
E---------------------------------|---------------------------------|

E-21/22---------------------------|
B---------------------------------|
G---------------------------------|
D---------------------------------|
A---------------------------------|
E---------------------------------|

Chorus repeated
------
Outro:
------

Strum:
D.... D.... D.... D.... D D4 D D2 D .. D D4 D D2 D

Finishing Chords:
-----------------
Am Am G G F F G

Copyrights
Author: ?
Composer: ?
Publisher: ?
More details
Language: English

Reactions

CommonCrawl [Bot]

Follow Muzikum