Led Zeppelin
Stairway To Heaven Solo (Guitar tab)

Stairway to Heaven(Solo)- Led Zeppelin
Transcribed by A.S ALANX@EIRCOM.NET

Notation: p - pull off
h - hammer on
^^ - full bend
^^^ - 1 1/2 bend
/ - slide
~~~~~ - vibrato




--2--0---------------2----------|----------------5--------------------------
--------3-----3----3---3--------|-------------------8p5---------------------
-----------0--4--4-------4p2----|---7^^~~~~~~~----------7p5----7p5---------
------------------------------5-|----------------------------7-------7p5----
--------------------------------|----------------------------------------8~~
--------------------------------|-------------------------------------------


--------------8--8--8^^---8--5-----------|-8--10p8--------------------------
--------8^^----------------------5---/10-|----------10p8------8h10~~~~~~~---
-----------------------------------------|----------------10----------------
-----------------------------------------|----------------------------------
~~~~~~~----------------------------------|----------------------------------
-----------------------------------------|----------------------------------


----------5------------------------------------------|-5--------------------
-------------8p5-------------------------------------|----8p5---------------
---7^^------------7-5-----7p5-------------5---5-5--0-|----------7p5----5h7p5
-----------------------7-------7p5----5-7---7--------|---------------7------
------------------------------------7----------------|----------------------
-----------------------------------------------------|----------------------


-----------------------------------|----------------------------------------
------------------------6----------|--------------------13--15^^--15-13-15--
----------------------5---7p5----5-|------12----12--14----------------------
--7p5--7p5-------5/7-----------7---|--/14----14-----------------------------
------------8----------------------|----------------------------------------
-----------------------------------|----------------------------------------


----------15^^---15-13----------------|--------------------------------------
--13--13----------------15^^--15-13---|-13-15^^(15)p13------13-15^^(15)p13---
-----------------------------------14-|----------------14------------------14
--------------------------------------|--------------------------------------
--------------------------------------|--------------------------------------
--------------------------------------|--------------------------------------


----------------------------------------|------------------------------------
--13-15^^(15)p13------13-15^^(15)p13----|--13-15^^(15)p13-----13-15^^(15)p13-
-----------------14------------------14-|-----------------14-----------------
----------------------------------------|------------------------------------
----------------------------------------|------------------------------------
----------------------------------------|------------------------------------


----------------------------------------------|-------------------------------
-------13-15^^(15)p13-------13-15^^(15)p13----|--13-15^^(15)p13-----13-15^^(15)
--14------------------14-------------------14-|-----------------14------------
----------------------------------------------|-------------------------------
----------------------------------------------|-------------------------------
----------------------------------------------|-------------------------------


--------------15^^---12-15-12------|----------------------------15-------------
(15)p13----13-----------------15-13|----13-15-13----13--15^^(hb)---(15)^p13----
--------14-------------------------|-14----------14----------------------------
-----------------------------------|-------------------------------------------
-----------------------------------|-------------------------------------------
-----------------------------------|-------------------------------------------


------------------------17--------------------------------|--------------------
---------------------20----20-----------------------------|--------------------
--14~~~~~~~-----19^^-----------19^^(19)p17----19-17----17-|--19^^~~~~~~~~------
-------------------------------------------19-------19----|--------------------
----------------------------------------------------------|--------------------
----------------------------------------------------------|--------------------

Grad.
------------------------------------------|-------------------------------------
------------------------------------------|---------------------------5---------
--14^^^--14^^^----14-12-14---12/14~~~~~~~~|--10^^^^---10-9-7-5-7-5--7---7-5-----
------------------------------------------|---------------------------------7~~~
------------------------------------------|-------------------------------------
------------------------------------------|-------------------------------------


----20p17----20p17----20p17----20p17----20p17----20^^--|
-17-------17-------17-------17-------17-------17-------|
-------------------------------------------------------|
-------------------------------------------------------|
-------------------------------------------------------|

Copyrights
Author: ?
Composer: ?
Publisher: ?
More details
Language: English

Reactions

CommonCrawl [Bot]

Follow Muzikum