Led Zeppelin
Rock N Roll Ver 2 (Guitar tab)

|------------------------|--------------------------|
|------------------------|--------------------------|
|------------------------|--------------------------|
|-2--2-----2--5^2--4-----|-----2--4--2--2--2--4--2--|
|-0--0--4--0--0----0--3'-|-(3)-0--0--0--0--0--0--0--|
|------------------------|--------------------------|


D riff
|------------------------|--------------------------|
|------------------------|--------------------------|
|-2--2-----2--5^2--4-----|-----2--4--2--2--2--4--2--|
|-0--0--4--0--0----0--3'-|-(3)-0--0--0--0--0--0--0--|
|------------------------|--------------------------|
|------------------------|--------------------------|

E riff
|---------------------------------------------------|
|------------------------|--------------------------|-
|------------------------|--------------------------|
|------------------------|--------------------------|
|-2--2-----2--5^2--4-----|-----2--4--2--2--2--4--2--|
|-0--0--4--0--0----0--3'-|-(3)-0--0--0--0--0--0--0--|

The riff names coorespond to the chord names of a twelve bar blues in A. Since
each riff is two measures long the progression looks like this:

| A riff | A riff | D riff | A riff | E riff | A riff |

The verse tab also follow the chords of a twelve bar blues like this.

A verse riff
|-----------------| |------------------|
|-----------------| |------------------|
|-----2-----------| play 3 |-----2-----2------|
|-----2-----------| times |-----2-----2------|
|-----0-----------|

Copyrights
Author: ?
Composer: ?
Publisher: ?
More details
Language: English

Reactions

CommonCrawl [Bot]

Follow Muzikum