Led Zeppelin
Out On The Tiles Ver 2 (Bass tab)

FTH80:G D A E ; Generated by Fast Tab, do not erase
====================
>From : Rex Ratio
Artist : John Paul Jones
Bass Performance: Out on the Tiles (Led Zeppelin III)
Comments: : Great Song! GREAT ARTIST!
---
Strings: E ,A ,D ,G
Symbols explanations:
H: hammer on P: pull off
+: slap .: pop
\: slide up /: slide down
--x~~x~~x: triplets
====================


This is the intro
s s s s s s s s s s s s s s s s e e e e e e
G ------------------------------------------------------------------
D ------------------------------------------------------------------
A ------------------------------------------------------------------
E --3--3--3--3--3--3--3--3--2--2--2--2--2--2--2--2--5P-3--5P-3--5P-3


Verse
s s s s h. s s s s s s s s s s s s s s s s s
G ------------------------------------------------------------------
D -----------4-----1--2--1--2--1--2--1--2--------------------------- x2
A --------4--------------------------------1--2--1--2--1--2--3--2--0
E --2--4------------------------------------------------------------
r
s s s s h. s s s s s s s s s s s s s s s s s s s s s
G -------------------------------------------------------------------------------
D -----------4-----1--2--1--2--1--2--1--2----------------------------------------
A --------4--------------------------------1--2--1--2--1--2--1--2----------------
E --2--4-----------------------------------------------------------4--5--4--5--4-
r
s s s e e. e. s s
G ------------------------
D ------------------------
A ------------------------ X2
E --5--4--5--2--0--2--0--2


Chorus
G ---------------------------------------------------------------------------------
D --------------------------------------------------------------------------------- X2
A --------------5--7--7--5--------------------5--7--7--5---------------------------
E --5--3--5-----------------7--0--3--5--3--5--------------7--5P-3--5P-3--5P-3--5P-3
r

intro
verse
chorus


Outro
G ---------------------------------------------
D --------------------------------------------- Repeat until the end
A -----5--7--5-----7-----------7-----7-----9--7
E --7-----------0-----0--0--0-----0-----0------

Copyrights
Author: ?
Composer: ?
Publisher: ?
More details
Language: English

Reactions

CommonCrawl [Bot]

Follow Muzikum