Led Zeppelin
Moby Dick Ver 2 (Bass tab)

this song was pretty easy to tab cuz john paul jones plays the same thing as page. the only thing thas diferent is that page tunes down. DO NOT TUNE YOUR BASS DOWN. aslo right before each guitar solo part pay the first not of the previous riff. just follow page for timing and for how many times you play everything. please rate this tab and my tab for lounge act by nirvana

riff 1

G-----7-7p5----------------
D--0--------7-3--5-3-5-3---
A--------------------------
E--------------------------

riff 2

G------------------------
D-----5-5p3--------------
A-----------5-1-3-1-3-1--
E--3----------------------

riff 3

G---------------------------
D--7---7p5---7-7---5-7------
A----------7-----7----------
E----5----------------------

G-----------------7-5---------
D--5-5-5-5-5-3--------7-5-3---
A--------------5--------------
E-----------------------------

enjoy!

Copyrights
Author: ?
Composer: ?
Publisher: ?
More details
Language: English

Reactions

CommonCrawl [Bot]

Follow Muzikum