Led Zeppelin
Kashmir Ver 2 (Bass tab)

KASHMIR (BASS TAB)
Led Zeppelin
tabbed by: Xswinnger54 (Ron)

Riff 1-
G-------------7-7-7---
D-------------------------
A---5-5-5------------5--
E-------------------------

Riff 2 : at approx. 2:06 & 6:25
G---7/9--7--5-----------------------------------------7/9--7--5---------------
----------------------------------
D-----------------7-------7---5-5--3-3---3-2-0------------------7-------7---5-
5--3-3---3-2-0---------0--
A----------------------5------------------------------------------------------
------------------------------0-2-----
E-----------------------------------------------------------------------------
----------------------------------------

Riff 3 : at approx. 3:22 & 6:37
G------------------------------
D------------------------------
A-----------------------------
E---3--------------------5-- 5x & 2nd time goes until fadeout

Copyrights
Author: ?
Composer: ?
Publisher: ?
More details
Language: English

Reactions

CommonCrawl [Bot]

Follow Muzikum