Led Zeppelin
The Battle Of Evermore (Guitar tab)

Intro:
E|-------------------------------------------------|
B|-------------------------------------------------|
G|-----------------------------------------0-0-----|
D|-------------------------------------------------|
A|-------------------------------------------------|
E|-3-3-3-3---3-3-----3-3-3---3---------------------|


E|----------------------------------|
B|----------------------------------|
G|------------------------------0-0-| Play 1 more time
D|-2-2-2-2---2-0-0--2-2-2-2---2-2-2-|
A|-0-0-0-0---0-2-2--0-0-0-0---0-3-3-|
E|----------------------------------|

E|----------------------------------|
B|----------------------------------|
G|------------------------------0-0-|
D|-2-2-2-2---2-0-0--2-2-2-2---2-2-2-| Play 1 more time
A|-0-0-0-0---0-2-2--0-0-0-0---0-3-3-|
E|----------------------------------|

E|2-------2-------2-------2-|
B|3-------3-------3-------3-|
G|2-------2-------2-------2-|
D|0-------0-------0-------0-| Play 1 more time
A|--------0-----------------|
E|--------------------------|
Just repeat everything a couple of more times then it moves on
to something else.

  • LesPaul0

    Submitted by

    LesPaul0 at Sun 10 Aug, 2003 8:04 am

  • <
Copyrights
Author: ?
Composer: ?
Publisher: ?
More details
Language: English

Reactions

CommonCrawl [Bot]

Follow Muzikum