Led Zeppelin
Rock And Roll Ver 3 (Guitar tab)

Tuning: Standard

Intro/Main Riff:
e|------------------------------------|
B|------------------------------------|
G|-------------------2-4-2-5-2-4-2--3-|
D|-2-4-2-5-2-4-2--3--0-0-0-0-0-0-0--0-|
A|-0-0-0-0-0-0-0--0-------------------|
E|------------------------------------|

Chorus:
e|------------------------------------------------|
B|------------------------------------------------|
G|----2-----2-----2-----2-----4-----4-----4-----4-|
D|----2-----2-----2-----2-----4-----4-----4-----4-|
A|----0-----0-----0-----0-----2-----2-----2-----2-|
E|-3-----3-----3-----3-----3-----3-----3-----3----|

  • LesPaul0

    Submitted by

    LesPaul0 at Tue 25 Mar, 2003 11:42 pm

  • <
Copyrights
Author: ?
Composer: ?
Publisher: ?

Reactions

CommonCrawl [Bot]

Follow Muzikum