Led Zeppelin
Stairway To Heaven Solo Ver 4 (Guitar tab)

ok everybody theres a really big problems with incorrect versions of stairway to heaven being put up
especially the solo so i thought id take the liberty of posting the solo
this solo is 99% right i coppied it directly out of the book written by pagey himself
the only wrong part is where i put a part played on the g and b string up onto the b and e string
so here it is the best 30 seconds of guitar ever. shine on you crazy diamonds.

-andy

|---------5-----------------------------------------------8-8-8-10-8--------10-8-----------------------|
|------------8--5------------------------------------8^----------------10-8--------10-8----------------|
|---7^-------------7--5----7--5------------------------------------------------------------10-8---7----|
|------------------------7--------7--5--3~~~~----------------------------------------------------------|
|------------------------------------------------------------------------------------------------------|
|------------------------------------------------------------------------------------------------------|

|------5-----------------------------------------------------5---------------------------------|
|---------8-5--------------------------------------------------8-5-----------------------------|
|-7^-----------7-5----7-5--------------5----5-5--------------------7-5----7-5------------------|
|-------------------7------7-5----5-7----7-------5/3--------------------7------7-5-7-5--3------|
|-------------------------------7--------------------------------------------------------------|
|----------------------------------------------------------------------------------------------|





|-------------------------------------------------------------15^--15-12----------------------|
|---------5----------------9----------13--15^---15-13-15-13---------------15^--15-13----------|
|-------5----7-5----5-7/9-----12-14----------------------------------------------------14-----|
|-3/7-------------7---------------------------------------------------------------------------|
|---------------------------------------------------------------------------------------------|
|---------------------------------------------------------------------------------------------|

|--------------------------------------------------------------------------------------------|
|-13-15^-13----13-15^-13---13-15^-13----13-15^-13---13-15^-13---13-15^-13---13-15^-13--------|
|-----------14-----------14----------14----------14-----------14----------14------------14---|
|--------------------------------------------------------------------------------------------|
|--------------------------------------------------------------------------------------------|
|--------------------------------------------------------------------------------------------|

|---------------------------------------------------------15^-(15)--12-15-12-------------------------------|
|-13-15^-13---13-15^-13---13-15^-13----13-15^-13------13----------------------15-12------15---13----13-15^-|
|-----------14----------14----------14-------------14--------------------------------14-----------14-------|
|----------------------------------------------------------------------------------------------------------|
|----------------------------------------------------------------------------------------------------------|
|----------------------------------------------------------------------------------------------------------|

|--15----------------------------------------15-17--15-----------------------------------|
|------15^-13-14-----13/12------13/10---15^----------------15^--13-15-13------13-15^-----|
|-------------------------------------------------------------------------14-------------|
|----------------------------------------------------------------------------------------|
|----------------------------------------------------------------------------------------|
|----------------------------------------------------------------------------------------|

|------------------------------------------------------------------------------------------------|
|--13/12------13/10---12--12--10------10-------------13/12-------13/10---8^----------------------|
|---------------------------------12-------12--------------------------------7^-5-7-5-7-9-7-5----|
|----------------------------------------------------------------------------------------------7-|
|------------------------------------------------------------------------------------------------|
|------------------------------------------------------------------------------------------------|

|-----------------------------20-17------20-17-----20-17-----20-17-----20-17------20^-|
|--13/12------13/10------17----------17---------17-------17---------17--------17------|
|-------------------------------------------------------------------------------------|
|-------------------------------------------------------------------------------------|
|-------------------------------------------------------------------------------------|
|-------------------------------------------------------------------------------------|

Copyrights
Author: ?
Composer: ?
Publisher: ?
More details
Language: English

Reactions

CommonCrawl [Bot]

Follow Muzikum