Led Zeppelin
Train Kept A Rollin (Guitar tab)

From: Steve Johnson (hockey_guitarist@hotmail.com)
Band/Artist: Led Zeppelin
Song: Train Kept-a-Rollin

OK, first off all the info for this song is off a bootleg from
Zeppelin's last live show in Berlin. Page, even though 1980 was his
best tour, still could spice up his songs, and he used this old
Yardbird tune (I think).

I recommend the use of a wah-wah pedal on this, spices it up a bit.

4/4 time Key of E
For the chords it's just 12 bar in E

Intro: Repeat 4 times. Then add a quick lick in E and repeat

e-------------
b-15----------
g-14b16-------
d--------------
a--------------
E--------------

After the second repeat you go (I'm only showing the bottom 2 strings)

a-2-0---------2-0---
E----3-2-0---------3-2-0

The verse goes:

a--------------------------------
E-3-0-0-0-3-0-0-0-3-0-0-0-3-0-0-0

a--------------------------------
E-5-0-0-0-5-0-0-0-5-0-0-0-5-0-0-0

and then:

a-0-2-0-2-2-0------0-2-0-2-2-0-----
E------------3-2-0------------3-2-0

During the verse you can add a little vibrato and a little bend
to the notes. Pretty easy song but probably has a couple of errors
cause it's all out of my head.

Any questions or comments or talking or anything e-mail me at

Copyrights
Author: ?
Composer: ?
Publisher: ?
More details
Language: English

Reactions

CommonCrawl [Bot]

Follow Muzikum