Led Zeppelin
Whole Lotta Love Solo (Guitar tab)

Whole lotta love solo










 

 

Here is the right and the easyest way to play the Whole
Lotta Love solo:

 

|----------12---------------------------------------------------------------------|

|----------12--15-12-----------------------------3--------------------------------|

|-------14b----------15p14p12-14p12�14b------2/4---4p2-0�2p0-0-2p0----------------|

|------------------------------------------------------------------2p0�2p0--------|

|---------------------------------------------------------------------------2-----|

|--0-0-------------------------------------------------------------------------0--|

 

 

|-----12--------15-----------------------------------19b---19�18-17---------------|

|-----12�15b-15b�-15b---17-20-20b----------20p17�-17----------------20p17-20-17---|

|--14b----------------------------21-21p17----------------------------------------|

|---------------------------------------------------------------------------------|

|---------------------------------------------------------------------------------|

|---------------------------------------------------------------------------------|

 

 

|---------------------19---------|���� Just listen to the record to get the
timing right.

|---17-19�19b-19b-19b----17------|���

|--------------------------------|

|--------------------------------|

|--------------------------------|

|--------------------------------|

Copyrights
Author: ?
Composer: ?
Publisher: ?
More details
Language: English

Reactions

CommonCrawl [Bot]

Follow Muzikum