Led Zeppelin
Stairway To Heaven Solo (Earl's Court) (Guitar tab)

This is the solo to the stairway to heaven at Knebworth,which is on a 2 disc dvd with a red mountain on the front with a ring above it in the sky.
Tabbed By:mldhippy
Key:T---=Tremelo picking b=Bend r=Release ^=Bend really High

e---------75----------5-8-8-8b-8---------8-108-------|-8h10p8-------- ------ ------ ------
B-----------75------------------10-8-8h10----108-810~|-------108--810 ------ ------ -8-8-8
G-5-8-7br~----75--------------------------------10---|----------10--- -7h8br~ -6h7br~ -8-8-8
D---------------7575---------------------------------|--------------- x6------ x8------ x3------
A-------------------8~-------------------------------|--------------- ------ ------ ------
E----------------------------------------------------|--------------- ------ ------ ------

e---------------------------------------------------------------------------------------
B-5h7p5--------------------------------------------------------------------------------6~
G------75-57-5h7p5------5---7---5---7-------------------------------------------------5-
D--------7--------75-5h7-5h7-5h7-5h7---------------------------------------7-5-7-5-7-5--
A-------------------7-----------------5h7p6p5---------------3h5p4p3-3h5p4p3-------------
E--------------------------------------------5h7p6p5-3h5p4p3----------------------------

T------------------------
e--------------------------------------|--------- ----------8---|-12--10--12-10-12-10-8--10
B-567-7h8p7p5-6~6h7p6p5-5~-------------|--------- ----6-8-10-8~-|-14--12--14-12-14-12-10-12
G-------------------------754-4h5p4-2~-|----5---7 --------------|--------------------------
D--------------------------------------|-5h7-5h7- -5h7----------|-------------------------- x2
A--------------------------------------|--------- x6--------------|--------------------------
E--------------------------------------|--------- --------------|--------------------------
T--------------------
e-/15-12-10--12-10-12-10-8--/15-12-10-/15-12-10-/16-12-10-8------|-------
B-/17-14-12--14-12-14-12-10-/17-14-12-/17-12-12-/18-14-12-10----8|------8
G------------------------------------------------------------7-9-|-7h9p7-
D----------------------------------------------------------------|------- x8
A----------------------------------------------------------------|-------
E----------------------------------------------------------------|-------

e----------------------------------------------------------------------------------------
B-13-12~12h13p12p10-12~12h13p12p10-12~12h13p12p10-12~12h13p12p10-12~12h13p12p10-12-13-13br
G---------------------------------------------------------------------------------------
D------------------------------------------------------------------------------------------
A------------------------------------------------------------------------------------------
E------------------------------------------------------------------------------------------

e---------------------------------------------------------------------------------------------
B-12h13p12p10-12-13-12-10-12-12h13p12p10-12~12h13p12p10-12~12h13p12p10-12-13-13br12h13p12p10-12~
G-----------------------------------------------------------------------------------------------
D---------------------------------------------------------------------------------------------
A-------------------------------------------------------------------------------------------------
E------------------------------------------------------------------------------------------------

e----------------------------------------------------------------------------------------------
B-10-12-13-12-12h13p12p10-12~12h13p12p10-12~12h13p12p10-12-10----------------12h13p12p10-1210-10
G------------------------------------------------------------12-12br-10-13br~----------------12-
D-----------------------------------------------------------------------------------------------
A-----------------------------------------------------------------------------------------------
E-----------------------------------------------------------------------------------------------

e-----------------------------------------|------- ---15b^-------------------------------------
B-5--5-8~----------------/13-15-13-15-13--|-13-15b -13-----11-13-14-13-11-13-14-13-11-13-14-13-11
G---7------10-12-10-10-12---------------14|------- ---------------------------------------------
D-------/10--------12---------------------|------- -------------------------------------------
A-----------------------------------------|------- x12----------------------------------------------
E-----------------------------------------|------- ---------------------------------------------

e------------------------------------------------13~-----------------------------------
B-13-14-13-11-11-13-13h14p13p11--11-141311-141311--11-13-14-13h14p13p11-10-------------
G------------------------------11-----------------------------------------12-10-12-10-~
D--------------------------------------------------------------------------------------
A--------------------------------------------------------------------------------------
E--------------------------------------------------------------------------------------

e------------------------------ -----------------------------------------------------
B-11-13-14-11-13-14-13-11131413 -13h14p13p11-1311-13h14p13p11-1311-12h13p12p10-1210--
G------------------------------ ---------------------------------------------------12
D------------------------------ x3-----------------------------------------------------
A------------------------------ -----------------------------------------------------
E------------------------------ -----------------------------------------------------

e---------------------------------------------------------------------------------------
B---------------------------------------------------------------------------------------
G------------------------------------1214p1214p1214p1214p1214p12------------1214p1214p12
D-----1012p1012p1012p1012p1012p101214---------------------------1012p1012p10------------
A-1012----------------------------------------------------------------------------------
E---------------------------------------------------------------------------------------

e-----------------------141312141312----14131214131214b^~14-13-14-13-14b^1313-14b^1313-14b^13~
B-141312141312----141312------------1413----------------------------------------------------
G-------------1413--------------------------------------------------------------------------
D-------------------------------------------------------------------------------------------
A------------------------------------------------------------------------------------------
E------------------------------------------------------------------------------------------

e-16b^14-12-------------------------------------------------------------------------
B----------14-12-10-12-13-13b-12h13p12p10-12-10----88-----88--10-12-10-----10-12-10-
G-----------------------------------------------7h9--7h9p7--12--------12-10--------12
D------------------------------------------------------------------------------------
A------------------------------------------------------------------------------------
E------------------------------------------------------------------------------------

e------ -------------------------------------------------------------------------------
B------ -13-12-10-12-13-12-10-12-10--5-----------------------5-------------------------
G-6h7br~ ----------------------------7--7b-7b-5-7-5-7-5-7-5--7-7-5-7-5-------12-10-12-11~
D------ --------------------------------------7---7---7---7----------7-5---------------
A------ x12-----------------------------------------------------------------/12-----------
E------ -------------------------------------------------------------------------------

e-----------17b^--------------17b^~-------------------17b^17b^17b^17b^17b^17b^17b^17b^17br
B-----------------------------------------------------------------------------------------
G-5-7b-7b-5-----5-7-7b-5-7b-5-------5------7b-5--7b-5-------------------------------------
D----------7------------7----7-----7-7-5h7-----7-----7------------------------------------
A-----------------------------------------------------------------------------------------
E-----------------------------------------------------------------------------------------

e------------58p58p58p58p58p58b^
B------------------------------
G-7b-5--7b-5--------------------
D-----7-----7------------------
A-------------------------------
E------------------------------- That's It.

  • mldhippy

    Submitted by

    mldhippy at Fri 08 Jul, 2005 11:39 pm

Copyrights
Author: ?
Composer: ?
Publisher: ?

Reactions

2 posts

CommonCrawl [Bot]

mldhippy Thu 21 Jul, 2005 5:53 pm

Don't listen to the above comment. If you want to play it, just print it out and try it before you comment on the tab.

TheCl@p Sat 09 Jul, 2005 2:59 pm

Bah, like we needed one more tab of Stairway to Heaven! Plus this tab is f***ing messy!

2 posts • Page 1 of 1

Follow Muzikum