Wet Wet Wet

Wet Wet Wet - Love Is All Around Me gitaar tab

Je score:
Wet Wet Wet-Love is all around me
Tabbed by TheOriginalAxeman

This is as *** near correct as i can get it, enjoy!

Bb: x  1  3  3  3  1
F : 1  3  3  2  1  1
F2: x  8  10 10 10 8
Eb: x  6  8  8  8  6
Cm: x  3  5  5  4  3

Intro:
Bb-Eb-F1-Eb-F1-Bb-F2

Riff 1:
E----------------------------------------------------------
B---3---------4--4-4-3------3--3---------4--4-4-3----------
G-----5-3-5------------5-5-------5-3-5------------5-3-2----
D-----------5--------------------------5----------------3--
A-1--------------------------------------------------------
E----------------------------------------------------------

Riff 2:
E---------------------------------------------------6------
B---3---------4--4-4-3------3--3---------4--4-4�4h6--------
G-----5-3-5------------5-5-------5-3-5---------------------
D-----------5--------------------------5-------------------
A-1--------------------------------------------------------
E----------------------------------------------------------

E----5-------4-----5-----
B4h6-----4h6---4h6---4h6-
G------------------------
D------------------------
A------------------------
E------------------------

Chorus Riff:
Eb-Cm-Eb-Bb*-Eb-Cm-Cm-F2-F2

* play this once you�ve hit the chord:

E---------
B---------
G---------
D-------1-
A-1-3-5---
E---------

Bridge Riff:
Bb-Eb-Cm-F1 x 2

Format:
Intro
Riff 1 x3
Riff 2 x1
Chorus Riff x1
Bridge Riff x1
Riff 1 x3
Riff 2 x1
Chorus Riff x1 (Hold the last F2 for 2 bars)
Bridge Riff (repeat to fade)
Vind dit lied op:
bol.com
amazon.com

Copyrights:

Auteur: ?

Componist: ?

Publisher: ?

Details:

Taal: Engels

Deel je mening

Dit formulier wordt beschermd door reCAPTCHA en de Google Privacy Policy en Servicevoorwaarden zijn daarbij van toepassing.

0 Reacties gevonden