Twisted Sister

Twisted Sister - Stay Hungry gitaar tab

Je score:
#
Date: Thu, 25 Jan 96 13:31:50 -0500
From: "Michael Zalot[mav]" 
Subject: stay_hungry.tab by Twisted Sister


"Stay Hungry" by Twisted Sister
>From the album STAY HUNGRY
words and music by Dee Snider
Tabulature by Mike C. Zalot (mcz@ulysses.att.com)





Intro/ Chorus pattern

		    pick up notes . . . (intro only)        Em    G
                                                   |----------------|
                                                   |----------------|
                                                   |----------------|
                                                   |--------2-------|
                                                   |--------2-----/-|
                                                   |--------0----3--|

 A5		  G		   A5		    G
|----------------|----------------|----------------|----------------|
|----------------|----------------|----------------|----------------|
|2---------------|0---------------|2---------------|0---------------|
|2---------------|0---------------|2---------------|0---------------|
|0---------------|----------------|0---------------|----------------|
|----------------|3---------------|----------------|3---------------|

 A5		  G                F  E    C   G    A5
|----------------|----------------|----------------|----------------|
|----------------|----------------|----------------|----------------|
|2---------------|0---------------|--------5-------|2---------------|
|2---------------|0---------------|3--2----5---5---|2---------------|
|0---------------|----------------|3--2----3---5---|0---------------|
|----------------|3---------------|1--0--------3---|----------------|



Verse pattern*

 A5               G                A5               G
|----------------|----------------|----------------|----------------|
|----------------|----------------|----------------|----------------|
|2---------------|0---------------|2---------------|0---------------|
|2---------------|0---------------|2---------------|0---------------|
|0---------------|----------------|0---------------|----------------|
|----------------|3---------------|----------------|3---------------|

	"Are ..
	 Are ...
	 Are ..
	 Running ...

Pre-chorus pattern

 F      G         Am          G    F      G         Am          G
|----------------|----------------|----------------|----------------|
|----------------|----------------|----------------|----------------|
|----------------|2-----------0---|----------------|2---------------|
|3------5--------|2-----------0---|3------5--------|2-----------5---|
|3------5--------|0---------------|3------5--------|0-----------5---|
|1------3--------|------------3---|1------3--------|------------3---|

 F      G         Am          G    B   A   G#   E   B  A G#   Em  G
|----------------|----------------|----------------|----------------|
|----------------|----------------|----------------|----------------|
|----------------|2-----------0---|4---2-----------|4--2------------|
|3------5--------|2-----------0---|4---2--------2--|4--2-------2----|
|3------5--------|0---------------|2---0--------2--|2--0-------2---/|
|1------3--------|------------3---|--------4----0--|------4----0--3-|
                                   ^   ^   ^    ^   ^  ^  ^
	lyrics...


*Bass part for Verse pattern:

 A5               G                A5               G
|----------------|----------------|----------------|----------------|
|----------------|----------------|----------------|----------------|
|----------------|----------------|----------------|----------------|
|5--5--3---------|5----5---3------|5---5--3--------|5----5--3-------|
Vind dit lied op:
bol.com
amazon.com

Copyrights:

Auteur: ?

Componist: ?

Publisher: Atlantic Recording Corporation

Details:

Uitgegeven in: 1984

Taal: Engels

Deel je mening

Dit formulier wordt beschermd door reCAPTCHA en de Google Privacy Policy en Servicevoorwaarden zijn daarbij van toepassing.

0 Reacties gevonden