Twisted Sister

Twisted Sister - Lookin' Out For Number 1 gitaar tab

Je score:
Twisted Sister - Lookin' Out For #1
Tabbed by Ruben


Intro:

Gtr. 1

E---______3 times._______---|-------------------------------------|
B--/                     \--|-------------------------------------|
G-----P.M.   . . .----------|-----P.M.   . . .----2---------------|
D--4--4-4-4--4-4-4----2--4--|--4--4-4-4--4-4-4----2--4--4----2----|
A--4--4-4-4--4-4-4----2--4--|--4--4-4-4--4-4-4----0--4--4----2----|
E--2--2-2-2--2-2-2----0--2--|--2--2-2-2--2-2-2-------2--2----0----|

Gtr. 2

E---------------------------|----------------------------------------------|
B--14----14----14-----------|---------------14-----------------------------|
G-----------------16-14-----|------------14-----16-14-16-14----------------|
D-----------------------16--|-----14-16------------------------------------|
A---------------------------|--16----------------------------14------------|
E---------------------------|-----------------------------------17--17-14--|

E---------------------------|------------------|---------------------------|
B-----------------------14--|------------------|---------14----14----14----|
G---------------14--16------|----------16------|---------------------------|
D------14--16---------------|------14------16--|-----14--------------------|
A--16-----------------------|--16--------------|--16-----------------------|
E---------------------------|------------------|---------------------------|

E----------------------------------------------|
B----------------------------------------------|
G--17--14------------14------------------------|
D----------16--16--------16--------------------|
A----------------------------------------------|
E----------------------------------------------|

Verse:

E-----------------------------------------------------------------------------|
B-----------------------------------------------------------------------------|
G-----P.M.   . . . .  . . . .  . . . .     . . .  . . . .     . . .  . . . .--|
D--4--4-4-4--4-4-4-4--4-4-4-4--4-4-4-4--2--2-2-2--2-2-2-2--4--4-4-4--4-4-4-4--|
A--4--4-4-4--4-4-4-4--4-4-4-4--4-4-4-4--2--2-2-2--2-2-2-2--4--4-4-4--4-4-4-4--|
E--2--2-2-2--2-2-2-2--2-2-2-2--2-2-2-2--0--0-0-0--0-0-0-0--2--2-2-2--2-2-2-2--|

E-----------------------------------------------------------------------------|
B-----------------------------------------------------------------------------|
G-----P.M.   . . . .  . . . .  . . . .     . . .  . . . .     . . .  4--2-----|
D--4--4-4-4--4-4-4-4--4-4-4-4--4-4-4-4--2--2-2-2--2-2-2-2--4--4-4-4--4--2--4--|
A--4--4-4-4--4-4-4-4--4-4-4-4--4-4-4-4--2--2-2-2--2-2-2-2--4--4-4-4--2--0--4--|
E--2--2-2-2--2-2-2-2--2-2-2-2--2-2-2-2--0--0-0-0--0-0-0-0--2--2-2-2--------2--|

E-----------------------------------------------------------------------------|
B-----------------------------------------------------------------------------|
G-----P.M.   . . . .  . . . .  . . . .     . . .  . . . .     . . .  4--2-----|
D--4--4-4-4--4-4-4-4--4-4-4-4--4-4-4-4--2--2-2-2--2-2-2-2--4--4-4-4--4--2--4--|
A--4--4-4-4--4-4-4-4--4-4-4-4--4-4-4-4--2--2-2-2--2-2-2-2--4--4-4-4--2--0--4--|
E--2--2-2-2--2-2-2-2--2-2-2-2--2-2-2-2--0--0-0-0--0-0-0-0--2--2-2-2--------2--|

E-----------------------------------------------------------------------------|
B-----------------------------------------------------------------------------|
G---------P.M.  .---------------------------------. . .  . . . .--------------|
D----4----4--4--4------4------4--4------4------2--2-2-2--2-2-2-2------4-------|
A----4----4--4--4------4------4--4------4------2--2-2-2--2-2-2-2------4-------|
E----2----2--2--2------2------2--2------2------0--0-0-0--0-0-0-0------2-------|

Pre-Chorus:

Gtr. 1

E-------------------------|-------------------------------|
B-------------------------|-------------------------------|
G-------------------------|---------------------4----6----|
D--4--6--7--2----4--2--4--|--4--6--7--2----4----4----6----|
A--4--6--7--2----4--2--4--|--4--6--7--2----4----2----4----|
E--2--4--5--0----2--0--2--|--2--4--5--0----2--------------|

Gtr .2

E-------------------------|-------------------------------|
B-------------------------|-------------------7~~--\------|
G---------6---------------|---------6----9----------------|
D------------9--7--9~~----|----9--------------------------|
A----9--------------------|-------------------------------|
E-------------------------|-------------------------------|

E-------------14------14~~----|---------------------------|
B-----------------14----------|----14---------------------|
G----/--14--------------------|----14----14-------14~~----|
D-----------------------------|--------------16-----------|
A-----------------------------|---------------------------|
E-----------------------------|---------------------------|

Chorus:

E---______3 times._______---|----------------------------------------|
B--/                     \--|----------------------------------------|
G-----P.M.   . . .----------|-----P.M.   . . .----2--2---------------|
D--4--4-4-4--4-4-4----2--4--|--4--4-4-4--4-4-4----2--2--4--4----2----|
A--4--4-4-4--4-4-4----2--4--|--4--4-4-4--4-4-4----0--0--4--4----2----|
E--2--2-2-2--2-2-2----0--2--|--2--2-2-2--2-2-2----------2--2----0----|


Play the Verse & Pre-Chorus one more time, before the solo.


Solo:

Gtr. 1

E-----------------------------------------------------------------------------|
B-----------------------------------------------------------------------------|
G-----P.M.   . . . .  . . . .  . . . .     . . .  . . . .     . . .  4--2-----|
D--4--4-4-4--4-4-4-4--4-4-4-4--4-4-4-4--2--2-2-2--2-2-2-2--4--4-4-4--4--2--4--|
A--4--4-4-4--4-4-4-4--4-4-4-4--4-4-4-4--2--2-2-2--2-2-2-2--4--4-4-4--2--0--4--|
E--2--2-2-2--2-2-2-2--2-2-2-2--2-2-2-2--0--0-0-0--0-0-0-0--2--2-2-2--------2--|

E-----------------------------------------------------------------------------|
B-----------------------------------------------------------------------------|
G-----P.M.   . . . .  . . . .  . . . .     . . .  . . . .     . . .  4--2-----|
D--4--4-4-4--4-4-4-4--4-4-4-4--4-4-4-4--2--2-2-2--2-2-2-2--4--4-4-4--4--2--4--|
A--4--4-4-4--4-4-4-4--4-4-4-4--4-4-4-4--2--2-2-2--2-2-2-2--4--4-4-4--2--0--4--|
E--2--2-2-2--2-2-2-2--2-2-2-2--2-2-2-2--0--0-0-0--0-0-0-0--2--2-2-2--------2--|

E-----------------------------------------------------------------------------|
B-----------------------------------------------------------------------------|
G---------P.M.  .---------------------------------. . .  . . . .--------------|
D----4----4--4--4------4------4--4------4------2--2-2-2--2-2-2-2------4-------|
A----4----4--4--4------4------4--4------4------2--2-2-2--2-2-2-2------4-------|
E----2----2--2--2------2------2--2------2------0--0-0-0--0-0-0-0------2-------|

Gtr. 2

E--9--12p11p9--12p11p9--12p11p9--12p11p9--12p11p9--12p11p9--12p11p9--12p11p9--|
B-----------------------------------------------------------------------------|
G-----------------------------------------------------------------------------|
D-----------------------------------------------------------------------------|
A-----------------------------------------------------------------------------|
E-----------------------------------------------------------------------------|

E--12b-(14)----12p11p9----19----12p11p9----12b-(14)---------------------------|
B--------------------------------------------------------------------------9--|
G---------------------------------------------------------------------9h11----|
D----------------------------------------------------------------9h11---------|
A-----------------------------------------------------------9h11--------------|
E------------------------------------------------------9h12-------------------|

E----------9---------------|--------------------------------------------------|
B--------------------------|--------------------------9---------------10------|
G----11---------11p9h11----|--------------------------------------------------|
D--------------------------|----11p9h11p9h11p9h11p9-------11p9h11p9-----------|
A--------------------------|--------------------------------------------------|
E--------------------------|--------------------------------------------------|

E--------------------------|----------------|---------------------------------|
B--------------------------|----10----------|---------------------------------|
G--------------------------|----------------|----11----9----------------------|
D----11--11--11--11--11----|----------------|---------------11----9-----------|
A--------------------------|--------11p9----|----------------------------9----|
E--------------------------|----------------|---------------------------------|

E-------------------------------------------|
B-------------------------------------------|
G--------11----\\\--------------------------|
D-------------------------------------------|
A-------------------------------------------|
E-------------------------------------------|

Pre-Chorus:

Gtr. 1

E-------------------------|-------------------------------|
B-------------------------|-------------------------------|
G-------------------------|---------------------4----6----|
D--4--6--7--2----4--2--4--|--4--6--7--2----4----4----6----|
A--4--6--7--2----4--2--4--|--4--6--7--2----4----2----4----|
E--2--4--5--0----2--0--2--|--2--4--5--0----2--------------|

Gtr .2

E-------------------------------|----------------------------|
B-------------------------------|----------------------------|
G----6--6--6----6---------------|----6-----------------------|
D------------------9--7--9~~----|-------9--7----9--7---------|
A-------------------------------|---------------------9~~----|
E-------------------------------|----------------------------|

E--------14------14----14--14~~--\----|----------------------|
B----14------14-----------------------|--14--14-14-14-14--\--|
G-------------------------------------|----------------------|
D-------------------------------------|----------------------|
A-------------------------------------|----------------------|
E-------------------------------------|----------------------|

Chorus:

E-------------------------------------|-----------------------------|
B-------------------------------------|-----------------------------|
G-------------P.M.   . . .------------|-----P.M.   . . .------------|
D--2----2--4--4-4-4--4-4-4----2--4----|--4--4-4-4--4-4-4----2--4----|
A--2----2--4--4-4-4--4-4-4----2--4----|--4--4-4-4--4-4-4----2--4----|
E--0----0--2--2-2-2--2-2-2----0--2----|--2--2-2-2--2-2-2----0--2----|

E-----------------------------|-------------------------------------|
B-----------------------------|-------------------------------------|
G-----P.M.   . . .------------|-------2-------2-------5--4--2-------|
D--4--4-4-4--4-4-4----2--4----|--4----2--4----2--4----5--4--2--4----|
A--4--4-4-4--4-4-4----2--4----|--4----0--4----0--4----3--2--0--4----|
E--2--2-2-2--2-2-2----0--2----|--2-------2-------2-------------2----|




Comments, suggestions, corrections, anything???
Mail me at drb_89@spray.no
Vind dit lied op:
bol.com
amazon.com

Copyrights:

Auteur: ?

Componist: ?

Publisher: ?

Details:

Taal: Engels

Komt voor op: I Wanna Rock (2005)

Deel je mening

Dit formulier wordt beschermd door reCAPTCHA en de Google Privacy Policy en Servicevoorwaarden zijn daarbij van toepassing.

0 Reacties gevonden