The Lostone Temple Pilotsrophets

The Lostone Temple Pilotsrophets - The Fake Sound Of Progress Ver 4 bass tab

Je score:
Name: Jeff
E-mail: Murdock2583@cs.com
Band: Lostprophets
Song: The Fake Sound of Progress
Tuning: 5-string, standard beadg
intro/chorus/outro:
g-----------------------------------------------------------------------------
d-----------------------------------------------------------------------------
a-----------------------------------------------------------------------------
e-0--2------------------------------------------------------------------------
b------1--3-------------------------------------------------------------------
verse:
g-----------------------------------------------------------------------------
d-----------------------------------------------------------------------------
a-----------------------------------------------------------------------------
e--0--------------------------------------------------------------------------
b----1------------------------------------------------------------------------
bridge:
g-----------------------------------------------------------------------------
d-----------------------------------------------------------------------------
a-----------------------------------------------------------------------------
e--0-------5--3---------------------------------------------------------------
b----3--1---------------------------------------------------------------------

That should be all, you just have to figure out the rhythm.
Vind dit lied op:
bol.com
amazon.com

Copyrights:

Auteur: ?

Componist: ?

Publisher: ?

Details:

Taal: Engels

Deel je mening

Dit formulier wordt beschermd door reCAPTCHA en de Google Privacy Policy en Servicevoorwaarden zijn daarbij van toepassing.

0 Reacties gevonden