The Lostone Temple Pilotsrophets

The Lostone Temple Pilotsrophets - The Fake Sound Of Progress Ver 2 bass tab

Je score:
Lost Prophets
The Fake Sound Of Progress

Tuning= D A D G


intro 1/outro
g------------------------------------------------------------------------------------|
d------------------------------------------------------------------------------------|
a---7--9-----------------------------------------------------------------------------|
d---------10--12---------------------------------------------------------------------|

intro 2/bridge/chorus
g------------------------------------------------------------------------------------|
d------------------------------------------------------------------------------------|
a---7-7-7--9-9-9---------------------------------------------------------------------|
d-----------------10-10-10--12-12-12-------------------------------------------------|

intro 3
g------------------------------------------------------------------------------------|
d------------------------------------------------------------------------------------|
a---7--7--7--7--7--7--7--------------------------------------------------------------|
d--7--7--7--7--7--7--7---------------------------------------------------------------|

verse
g------------------------------------------------------------------------------------|
d------------------------------------------------------------------------------------|
a------------------------------------------------------------------------------------|
d--5--55-5--1--11-1--5--55-5--0--00-0------------------------------------------------|

riff 1
g------------------------------------------------------------------------------------|
d------------------------------------------------------------------------------------|
a---7-7-7--9-9-9---------------------------------------------------------------------|
d-----------------10-10-10--7-7-7----------------------------------------------------|

riff 2
g------------------------------------------------------------------------------------|
d------------------------------------------------------------------------------------|
a--7----7----7-----------------------------------------------------------------------|
d----10---10---10--------------------------------------------------------------------|

riff 3
g------------------------------------------------------------------------------------|
d------------------------------------------------------------------------------------|
a--7-7-77-7-7-7-7-7-77---------------------5-5-55-5-5-5-5-5-55-2-2-22-2-2-2-2-22-----|
d----------------------5-5-55-5-5-5-5-5-55-------------------------------------------|

end
g------------------------------------------------------------------------------------|
d------------------------------------------------------------------------------------|
a------2-2-32-----2-2-32-------------------------------------------------------------|
d--2-2--------2-2--------------------------------------------------------------------|

order=
intro 1 x 4
intro 2 x 6
intro 3 x 1
verse   x 4
bridge  x 4
chorus  x 8
intro 3 x 1
verse   x 4
bridge  x 4
chorus  x 4
riff 1  x 4
riff 2  x 2
riff 3  x 8
outro   x 4
chorus  x 4
riff 1  x 4
end     x 4
Vind dit lied op:
bol.com
amazon.com

Copyrights:

Auteur: ?

Componist: ?

Publisher: ?

Details:

Taal: Engels

Deel je mening

Dit formulier wordt beschermd door reCAPTCHA en de Google Privacy Policy en Servicevoorwaarden zijn daarbij van toepassing.

0 Reacties gevonden