The Lostone Temple Pilotsrophets

The Lostone Temple Pilotsrophets - Shinobi Vs Dragon Ninja Ver 3 bass tab

Je score:
Band:lostProphets
Song:ShinobiVs.DragonNinja
album:the fake sound of progress
Chorus
                                                                                                       X2
G-----------------------------------------------------------------------------------
D-------------------------------------------------------3--------3-------5--------5-
A------98---------98---------98-----------98----------------------------------------
E-0-0------0-0-0-----0-0-0------0-0-0-0-----33-3---33-3----55-5----55-5--------

Verse                                                                         X2
G-----------------------------------------------------------
D-----------------------------------------------------------
A----------------------------------------------------------                         E-000000000-000000000-555555555-333343333--

                                           X2
G----------------------------------
D----------------------------------
A----10---10-------7---7---6----
E-10---10---10p9----7---7---6-

Chorus x2
Verse
Chorus x2

Bridge

G--------------------------------------------------
D--------------------------------------------------
A--------------------------------------------------
E-8~----0~-----8~-----0~-------8~-------------

Break then play

                                                       X4
G-------------------------------------------
D-------------------------------------------
A--------------------------------------------
E-0-0-23-0-0-023-0-0-0-23-0-0-0-23--

Outro

G--------------------------------------------
D--------------------------------------------
A--------------------------------------------
E-000000000------------------------------
Vind dit lied op:
bol.com
amazon.com

Copyrights:

Auteur: ?

Componist: ?

Publisher: ?

Details:

Taal: Engels

Deel je mening

Dit formulier wordt beschermd door reCAPTCHA en de Google Privacy Policy en Servicevoorwaarden zijn daarbij van toepassing.

0 Reacties gevonden