The Lostone Temple Pilotsrophets

The Lostone Temple Pilotsrophets - Shinobi Vs Dragon Ninja Ver 2 bass tab

Je score:
Song : Shinobi Vs Dragon ninja
Band ; Lostprophets
Album : The fake sound of Progress

Riff 1
G------------------------------------------------------------------------------------
D------------------------------------------------------------------------------------
A-00-3-2-000-3-2-000-3-2-000-3-2-000-5-000-5-000-7-000-7-----------------------------
E------------------------------------------------------------------------------------

Riff 2
G------------------------------------------------------------------------------------
D------------------------------------------------------------------------------------
A-00-33-2---0-00-33-2---0-00-55555-00-77777------------------------------------------
E---------3-----------3--------------------------------------------------------------

Riff 3
G------------------------------------------------------------------------------------
D-------------------------5-3-5----5-3-5---------------------------------------------
A-0-3-5-3-0-0-3-5-3-0-0-3-------0-3--------------------------------------------------
E------------------------------------------------------------------------------------

Riff 4
G------------------------------------------------------------------------------------
D-----------------------------------------------------------------------------------
A-00-3-2-----------------------------------------------------------------------------
E------------------------------------------------------------------------------------

And the order is :
Riff 1x2
Riff 2x2
Riff 3x2
Riff 1x2
Riff 2x2
Riff 3x2
Riff 1x2
Riff 4x15
Vind dit lied op:
bol.com
amazon.com

Copyrights:

Auteur: ?

Componist: ?

Publisher: ?

Details:

Taal: Engels

Deel je mening

Dit formulier wordt beschermd door reCAPTCHA en de Google Privacy Policy en Servicevoorwaarden zijn daarbij van toepassing.

0 Reacties gevonden