The Lostone Temple Pilotsrophets

The Lostone Temple Pilotsrophets - Shinobi Vs Dragon Ninja bass tab

Je score:
Lostprophets - Shinobi Vs Dragon Ninja
 Taken from the album "Thefakesoundofprogress"
 Tabbed by Bassmonkey

 Tuning - C G C F (dropped D and then a whole step down)
          See the bottom of the page for advice on how to get into this tuning.


        I looked at a whole loada tabs for this song and they were all wrong in some
        ways (like an octave too high or wrong tuning or whatever) so I tabbed it
        myself! Listen to the song and you'll get the rhythm. Enjoy!

       Intro
  F|-----------------------------------------------------------------------------|
  C|--0----0--15-14----0---0---0--15-14----0---0---0--15-14----0---0-0-0--15-14\-|
  G|-----------------------------------------------------------------------------|
  C|-----------------------------------------------------------------------------|

  F|-----------------------------------------------------------------------------|
  C|-----------------------------------------------------------------------------|
  G|---8---8---8------8---8---8----8-10--10--10------10--10--10------------------|
  C|-----------.--------------.---------------.----------------------------------|


        2nd bit of Intro (where it goes all heavy and stuff)
  F|-----------------------------------------------------------------------------|
  C|-----------------------------------------------------------------------------|
  G|-----------------------------------------------------------------------------|
  C|--0----0--15-14----0---0---0--15-14----0---0---0--15-14----0---0-0-0--15-14\-|
                                                                                   X2
  F|-----------------------------------------------7--------------7--------------|
  C|---------------5--------------5----------------------------------------------|
  G|-----------------------------------------------------------------------------|
  C|---3---3---3------3---3---3------3-5---5---5------5---5---5------------------|


        Verse (all notes slapped)
  F|-----------------------------------------------------------------------------|
  C|-----------------------------------------------------------------------------|
  G|-----------------------------------------------------------------------------|
  C|---0----0----0-0-----0----0----0-0---------0----0----0-0-----0----0----0-0---|
       .    .    . .     .    .    . .         .    .    . .     .    .    . .     X2
  F|-----------------------------------------------------------------------------|
  C|-----------------------------------------------------------------------------|
  G|-----------------------------------------------------------------------------|
  C|---3----3----3-3-----3----3----3-3---------2----2----2-2-----3----2----2-2---|
       .    .    . .     .    .    . .         .    .    . .     .    .    . .

        Prechorus
  F|-----------------------------------------------------------------------------|
  C|--------------------------------------------------10------10-----------------|
  G|-------12------12---------12------12----------10------10------10^------------|
  C|---12------0----------12------0-----------10---------------------------------|
                                                                                   X2
  F|-----------------------------------------------------------------------------|
  C|-----------------------------------------------------------------------------|
  G|--------15--------15----15^--------------------------------------------------|
  C|---14--------14--------------------------------------------------------------|


        Chorus (pretty much the same as the 2nd bit of the Intro)
  F|-----------------------------------------------------------------------------|
  C|-----------------------------------------------------------------------------|
  G|-----------------------------------------------------------------------------|
  C|--0----0--15-14----0---0---0--15-14----0---0---0--15-14----0---0-0-0--15-14\-|
                                                                                   X2
  F|-----------------------------------------------7--------------7--------------|
  C|---------------5--------------5----------------------------------------------|
  G|-----------------------------------------------------------------------------|
  C|---3---3---3------3---3---3------3-5---5---5------5---5---5------------------|

        Repeat Verse, Prechorus and Chorus again

        Then play
        Bridge
  F|-----------------------------------------------------------------------------|
  C|-----------------------------------------------------------------------------|
  G|-----------------------------------------------------------------------------|
  C|----7------------------------0-----------------------------------------------|

  F|-----------------------------------------------------------------------------|
  C|-----------------------------------------------------------------------------|
  G|-----------------------------------------------------------------------------|
  C|----3------------------------0-----------------------------------------------|

  F|-----------------------------------------------------------------------------|
  C|-----------------------------------------------------------------------------|
  G|-----------------------------------------------------------------------------|
  C|----3-----------break--------------------------------------------------------|

          This is followed by guitars and sampling

         Then play
         Outro
  F|-----------------------------------------------------------------------------|
  C|-----------------------------------------------------------------------------|
  G|-----------------------------------------------------------------------------|
  C|--0----0---3-2----0---0---0---3-2----0---0---0---3-2---0---0---0---3-2-------|

  F|-----------------------------------------------------------------------------|
  C|-----------------------------------------------------------------------------|
  G|-----------------------------------------------------------------------------| X3
  C|--0---0---0---3-2----0---0---0---3-2----0---0---0---3-2---0---0---0---3-2----|

  F|-----------------------------------------|
  C|-----------------------------------------|
  G|-----------------------------------------|
  C|---0----0----0-0-----0----0----0-0--0-0--|
       .    .    . .     .    .    . .  . .

  Weird tab notation:
        . - short, stacatto note
        ^ - bend note

       To get into this tuning without using an electronic tuner or whatever,
       if you don't already know how, follow this method. this is a weird
       tuning but some bands use it a lot (eg; System of a Down, Static X)
       so try and get used to it! The way I do it is play a 12th fret harmonic*
       on the A string and then play an open G. Then tune the A it down until
       it sounds like the G string. Next tune the higher stings down by using
       the 5th fret tuning technique (a 5 on a G will give you a C: the next open
       note up). As for the bottom C string, tune this as you would for a
       dropped D tuning: play a 12th fret harmonic on the E string and then
       an open C (now on the D string). Tune the E down until it sounds like
       the C. Alternatively use the 5th fret technique but play a 7th fret
       instead of 5th.

   *If you can't play harmonics or don't know what they are, just play the 12th
    fret like you normally would. It's the same kinda thing! :)
Vind dit lied op:
bol.com
amazon.com

Copyrights:

Auteur: ?

Componist: ?

Publisher: ?

Details:

Taal: Engels

Deel je mening

Dit formulier wordt beschermd door reCAPTCHA en de Google Privacy Policy en Servicevoorwaarden zijn daarbij van toepassing.

0 Reacties gevonden