The Lostone Temple Pilotsrophets

The Lostone Temple Pilotsrophets - Five Is A Four Letter Word bass tab

Je score:
Song : Five is a four letter word
Band : Lostprophets

Intro/Pre chorus
G10\-3p00000000-3p00000000-3p00000000-3p00000000-0-3h5p3--
D---------------------------------------------------------
A---------------------------------------------------------        x2
E---------------------------------------------------------

Verse
G--------------------0-0-0-0-0--0-0-0-0-0
D1-1-1-1-1--1-1-1-1-1--------------------
A----------------------------------------
E----------------------------------------

Chorus
G-------------------------------
D-3-5-0--3-5-0------------------
A------3------3--1--------------
E------------------4-3-4-1-4-3-4

Bridge
G----------3--3--3--3---------
D--------------------------------
A-------------------------------
E-----------------------------

Outro
G------------------
D-8\5-5-5-5-5------
A------------------
E------------------

End
G-----------------
D-----------------
A-6---------------
E-----------------

Intro/Pre chorus x2
Verse x4
Pre chorus x2
Chorus x1
Verse x4
Pre chorus x2
Chorus x1
Bridge x1
Chorus x1
Outro x4
End
Vind dit lied op:
bol.com
amazon.com

Copyrights:

Auteur: ?

Componist: ?

Publisher: ?

Details:

Taal: Engels

Deel je mening

Dit formulier wordt beschermd door reCAPTCHA en de Google Privacy Policy en Servicevoorwaarden zijn daarbij van toepassing.

0 Reacties gevonden