The Goo Goo Dolls

The Goo Goo Dolls - Big Machine bass tab

Je score:
Date: Tue, 24 Sep 2002 07:07:02 +0200 (CEST)
From: Jan Bj�rklund 
Subject: g/go_go_dolls/big_machine.btab

go_go_dolls/big_machine.btab

Basstab by Jan Bjorklund, Finland;
jani_bjorklund@yahoo.se
You are welcome to request for basstabs!
Bienvenidos a pedirme transcripciones para el bajo!

TablEdited by Jan Bjorklund for Tom
Tuning : B E A D G 	Time Signature: 4/4

 |       |       |       |        |       |       |       |
|--------------------------------|--------------------------------|
|--------------------------------|--------------------------------|
|------------------------1/----3-|6-----------6-------6---6-------|
|--------------------------------|--------------------------------|
|--------------------------------|--------------------------------|

 |       |       |       |        |       |       |       |
|--------------------------------|--------------------------------|
|--------------------------------|--------------------------------|
|6-----------6-------6---6/----3-|--------------------------------|
|--------------------------------|--------------------------------|
|--------------------------------|6---------------4---------------|

 |       |       |       |        |       |       |       |
|--------------------------------|--------------------------------|
|--------------------------------|--------------------------------|
|--------------------------------|6-----------6-------6---6-------|
|--------------------------------|--------------------------------|
|8-----------6---6---4---4---8---|--------------------------------|

 |       |       |       |        |       |       |       |
|--------------------------------|--------------------------------|
|--------------------------------|--------------------------------|
|6-----------6-------6---6-------|--------------------------------|
|--------------------------------|--------------------------------|
|--------------------------------|8-----------8---8---------------|

 |       |       |       |        |       |       |       |
|--------------------------------|--------------------------------|
|--------------------------------|--------------------------------|
|--------------------------------|6-----------6-------6---6-------|
|--------------------------------|--------------------------------|
|8---------------8-------6-------|--------------------------------|

 |       |       |       |        |       |       |       |
|--------------------------------|--------------------------------|
|--------------------------------|--------------------------------|
|6-----------6-------6---6-------|--------------------------------|
|--------------------------------|--------------------------------|
|--------------------------------|6-----------4---4---------------|

 |       |       |       |        |       |       |       |
|--------------------------------|--------------------------------|
|--------------------------------|--------------------------------|
|--------------------------------|6-----------6-------6---6-------|
|--------------------------------|--------------------------------|
|6h--8-------6---6---4---8-------|--------------------------------|

 |       |       |       |        |       |       |       |
|--------------------------------|--------------------------------|
|--------------------------------|--------------------------------|
|6-----------6-------6---6-------|--------------------------------|
|--------------------------------|3-------3-------3---3---3---3---|
|----------------------------3---|--------------------------------|

 |       |       |       |        |       |       |       |
|--------------------------------|--------------------------------|
|--------------------------------|--------------------------------|
|--------------------------------|6-------6-------6---6---6-------|
|3-------3-------2-------1-------|--------------------------------|
|--------------------3-----------|--------------------------------|

 |       |       |       |        |       |       |       |
|--------------------------------|--------------------------------|
|--------------------------------|--------------------------------|
|6-------6-------6---6---6/----3-|--------------------------------|
|--------------------------------|--------------------------------|
|--------------------------------|6-----------4---4---------------|

 |       |       |       |        |       |       |       |
|--------------------------------|--------------------------------|
|--------------------------------|--------------------------------|
|--------------------------------|--------------------------------|
|--------------------------------|6-----------6-----------6-------|
|8-----------6---6---4---4-------|--------------------------------|

 |       |       |       |        |       |       |       |
|--------------------------------|--------------------------------|
|--------------------------------|--------------------------------|
|--------------------------------|--------------------------------|
|--------------------------------|--------------------------------|
|6-----------6-------6---6-------|8-----------8-------8---8-------|

 |       |       |       |        |       |       |       |
|--------------------------------|--------------------------------|
|--------------------------------|--------------------------------|
|--------------------------------|--------------------------------|
|--------------------------------|6-----------------------6-------|
|6-----------6-------6---6-------|--------------------------------|

 |       |       |       |        |       |       |       |
|--------------------------------|--------------------------------|
|--------------------------------|--------------------------------|
|--------------------------------|--------------------------------|
|--------------------------------|--------------------------------|
|6-------------------6---6-------|8-----------8-------8---8-------|

 |       |       |       |        |       |       |       |
|--------------------------------|--------------------------------|
|--------------------------------|--------------------------------|
|--------------------------------|6-------------------------------|
|--------------------------------|--------------------------------|
|6-----------6-------6---6-------|--------------------------------|

 |       |       |       |        |       |       |       |
|--------------------------------|--------------------------------|
|--------------------------------|--------------------------------|
|6-------------------------------|6-----------6-------6---6-------|
|--------------------------------|--------------------------------|
|--------------------------------|--------------------------------|

 |       |       |       |        |       |       |       |
|--------------------------------|--------------------------------|
|--------------------------------|--------------------------------|
|6-----------6-------6---6-------|--------------------------------|
|--------------------------------|--------------------------------|
|--------------------------------|8-----------8---8/--6-----------|

 |       |       |       |        |       |       |       |
|--------------------------------|--------------------------------|
|--------------------------------|--------------------------------|
|--------------------------------|6-----------6-------6---6-------|
|--------------------------------|--------------------------------|
|8-----------8---8-------6-------|--------------------------------|

 |       |       |       |        |       |       |       |
|--------------------------------|--------------------------------|
|--------------------------------|--------------------------------|
|6-----------6-------6---6-------|--------------------------------|
|--------------------------------|--------------------------------|
|--------------------------------|6-----------4---4---------------|

 |       |       |       |        |       |       |       |
|--------------------------------|--------------------------------|
|--------------------------------|--------------------------------|
|--------------------------------|6-----------6---6---6---6-------|
|--------------------------------|--------------------------------|
|8-----------6---6---4---4-------|--------------------------------|

 |       |       |       |        |       |       |       |
|--------------------------------|--------------------------------|
|--------------------------------|--------------------------------|
|6-------6-------6---6---6-------|--------------------------------|
|--------------------------------|3-------3-------3---3---3-------|
|--------------------------------|--------------------------------|

 |       |       |       |        |       |       |       |
|--------------------------------|--------------------------------|
|--------------------------------|--------------------------------|
|--------------------------------|6-------6-------6---6---6-------|
|3-------3-------3-------1-------|--------------------------------|
|--------------------3-----------|--------------------------------|

 |       |       |       |        |       |       |       |
|--------------------------------|--------------------------------|
|--------------------------------|--------------------------------|
|6-------6-------6---6---6-------|--------------------------------|
|--------------------------------|--------------------------------|
|--------------------------------|6-----------4---4---------------|

 |       |       |       |        |       |       |       |
|--------------------------------|--------------------------------|
|--------------------------------|--------------------------------|
|--------------------------------|--------------------------------|
|--------------------------------|6-----------6-----------6-------|
|8---------------6---4---4-------|--------------------------------|

 |       |       |       |        |       |       |       |
|--------------------------------|--------------------------------|
|--------------------------------|--------------------------------|
|--------------------------------|--------------------------------|
|--------------------------------|3-----------3---3-------3-------|
|6-----------6-----------6-------|--------------------------------|

 |       |       |       |        |       |       |       |
|--------------------------------|--------------------------------|
|--------------------------------|--------------------------------|
|--------------------------------|--------------------------------|
|--------------------------------|6-----------6-------6---6-------|
|6-----------6-------6---6-------|--------------------------------|

 |       |       |       |        |       |       |       |
|--------------------------------|--------------------------------|
|--------------------------------|--------------------------------|
|--------------------------------|--------------------------------|
|--------------------------------|--------------------------------|
|6-----------6-------6---6-------|8-----------8-----------8---8-8-|

 |       |       |       |        |       |       |       |
|--------------------------------|--------------------------------|
|--------------------------------|--------------------------------|
|--------------------------------|6-------------------------------|
|--------------------------------|--------------------------------|
|6-----------6-----------6/8-----|--------------------------------|

 |       |       |       |        |       |       |       |
|--------------------------------|--------------------------------|
|--------------------------------|--------------------------------|
|--------------------------------|-------And so on until end------|
|--------------------------------|6-------------------------------|
|4-------------------------------|--------------------------------|


Transcribe! 5.2 transcription http://www.seventhstring.demon.co.uk/
Created with TablEdit http://www.tabledit.com/
Vind dit lied op:
bol.com
amazon.com

Copyrights:

Auteur: ?

Componist: ?

Publisher: ?

Details:

Taal: Engels

Komt voor op: Greatest Hits Volume One: The Singles (2007) , Gutterflower (2002)

Deel je mening

Dit formulier wordt beschermd door reCAPTCHA en de Google Privacy Policy en Servicevoorwaarden zijn daarbij van toepassing.

0 Reacties gevonden