Sum 41

Sum 41 - Over My Head (better Off Dead) gitaar tab

Je score:
PROPS GO TO: Andres Lazo

Artist: Sum 41
Song: Over My Head (Better Off Dead)
Album: Does This Look Infected?
Tabber: Andres lazo
E-mail: andrulazo@hotmail.com

---------------
|PALMUTED: (#)|
|MUTED:    (x)|
---------------

INTRO (Guitar 1)

e|------------------------|
B|------------------------|
G|-----0-4-4-----2--------|   X2
D|--2-2-2-5-5-4-4-4----4--|
A|------------------5-5-5-|
E|------------------------|
    # # # # # # # # # # #

INTRO (Guitar 2)
At the end of the second time you play the intro, the second guitar plays this:

e|--19-------|
B|-----------|
G|----16-19--|   X1
D|-----------|
A|-----------|
E|-----------|

RIFF 1
e|--------------------------------------|
B|--------------------------------------|
G|--9999--12-12-12-12--11-11-11-11-7777-|   X4
D|--9999--xx-xx-xx-xx--xx-xx-xx-xx-7777-|
A|--7777--10-10-10-10--9--9--9--9--5555-|
E|--------------------------------------|

INTRO AGAIN
e|------------------------|
B|------------------------|
G|-----0-4-4-----2--------|   X4
D|--2-2-2-5-5-4-4-4----4--|
A|------------------5-5-5-|
E|------------------------|
    # # # # # # # # # # #

PRE CHORUS (Guitar 1)
e|-----------------------------------------------------------------------|
B|-----------------------------------------------------------------------|
G|--------------------------------------0---4---4--------0---4---4-------|
D|----2-----2---2------4-----4---4--2-2---2---5---5--2-2---2---5---5-----|
A|-3-3--3-3---3----5-5---5-5---5-----------------------------------------|
E|-----------------------------------------------------------------------|
   # #  # #   #    # #   # #   #    # #   #   #   #  # #   #   #   #

PRE CHORUS CONTINUED
e|-------------------------------------------|
B|-------------------------------------------|
G|-------------------------------------------|
D|----2-----2---2------4-----4---4--22222222-|
A|-3-3--3-3---3----5-5---5-5---5----22222222-|
E|----------------------------------00000000-|

PRECHORUS (Guitar 2)
Play it at the end of the Guitar 2's pre chorus

e|--19-19-19--|
B|--0--0--0---|
G|------------|
D|------------|
A|------------|
E|------------|

CHORUS
e|------------------------------------------------------|
B|------------------------------------------------------|
G|-------55555-------77777-99999-55555-------77777------|
D|-22222-55555-55555-77777-99999-55555-55555-77777------|
A|-22222-33333-55555-55555-77777-33333-55555-55555------|
E|-00000-------33333-------------------33333------------|

INTERLUDE
e|--------------------------------------|
B|--------------------------------------|
G|-12--12--14--14--12--12--11--11-------|
D|-xx--xx--xx--xx--xx--xx--xx--xx-------|
A|-10--10--12--12--10--10--9---9--------|
E|--------------------------------------|

INTRO X3
PRE CHORUS X1
CHORUS

BRIDGE
Guitar 1 plays all the notes and guitar 2 just strums them

e|--------------------------------------------------------------------------------------|
B|--------------------------------------------------------------------------------------|
G|-------5555------7777------5555----------------------5555------7777------5555-77-77-7-|
D|--2222-5555-5555-7777-2222-5555-555555-5-5-5-5--2222-5555-5555-7777-2222-5555-77-77-7-|
A|--2222-3333-5555-5555-2222-3333-555555-5-5-5-5--2222-3333-5555-5555-2222-3333-55-55-5-|
E|--0000------3333------0000------333333-3-3-3-3--0000------3333------0000--------------|
                                         # # # #
SOLO (Guitar 1)

e|---------------------------------------------------------------------------|
B|---------------------------------------------------------------------------|
G|-12-11-14-12-16-12-11-12-14-16---------------------------------------------|
D|-xx-xx-xx-xx-xx-xx-xx-xx-xx-xx---------------------------------------------|
A|-10-9--12-10-14-10-9--10-12-14---------------------------------------------|
E|---------------------------------------------------------------------------|

SOLO (Guitar 2)
When Bizzy D starts to sing he plays this:

e|-------------------------|
B|-------------------------|
G|-------55555-------77777-|
D|-22222-55555-55555-77777-|
A|-22222-33333-55555-55555-|
E|-00000-------33333-------|

CHORUS
INTERLUDE
END

I Hope you liked this tab, if you want me to tab something for you,sugestions corrections, etc send me an email to andrulazo@hotmail.com
Vind dit lied op:
bol.com
amazon.com

Copyrights:

Auteur: ?

Componist: ?

Publisher: Island Def Jam Music Group

Details:

Uitgegeven in: 2002

Taal: Engels

Deel je mening

Dit formulier wordt beschermd door reCAPTCHA en de Google Privacy Policy en Servicevoorwaarden zijn daarbij van toepassing.

0 Reacties gevonden