Sometime Sunday

Sometime Sunday - Home gitaar tab

Je score:
"Home"
Written and Performed by Sometime Sunday
On the Tooth and Nail Records album "Stone"
(C)1994 Thirsty Moon River Publishing
Tabbed by Zach Hughes (jhughes@marauder.millersv.edu)

To play along, tune your guitar down about a quarter step.

Cs = Csus2 = (x32030)


Main riff:

e--------------------------------------------------------------------
b--------------------------------------------------------------------
g--------------------------------------------------------------------
d-7-7---9-7-7---------------------7-7---9-7-7------------------------
a-----7-------9/7-7-7---9-7-7---------7-------9/7---------9-7-7------
e---------------------7-------9/7-----------------5-5-7-5-------9/7--



For intro, play the main riff three times, then play two more times
during the first verse.

And home is a place I've never been.

And home is a place I've never seen.

             E
Can you understand?

Chorus:

G                     D          Cs  Am A            C7
In times of distress, I think of you.    Coming down,  coming down.



Main riff

Play main riff twice during second verse.

Like a child, like a baby, you took me in your arms.

                                                   E
I'll hold on to Sunday, yeah. A first time to come home.

Chorus twice through



Bridge:


I hear you calling...

e--------------------------------------------
b-1-3-3-3-3-3-3-3-1-3-1-1-3-3-3-3-3-3-3-1-3-1
g--------------------------------------------
d--------------------------------------------
a--------------------------------------------
e--------------------------------------------

strum A


I hear you calling...

e--------------------------------------------
b-1-3-3-3-3-3-3-3-1-3-1-1-3-3-3-3-3-3-3-1-3-1
g--------------------------------------------
d--------------------------------------------
a--------------------------------------------
e--------------------------------------------

strum A, then E

Chorus twice through

Main riff to the end

This isn't quite right, but pretty close.
For full effect, play on the road side of a nearby interstate.
Vind dit lied op:
bol.com
amazon.com

Copyrights:

Auteur: ?

Componist: ?

Publisher: Tooth & Nail Records

Details:

Uitgegeven in: 1993

Taal: Engels

Komt voor op: PAIN

Deel je mening

Dit formulier wordt beschermd door reCAPTCHA en de Google Privacy Policy en Servicevoorwaarden zijn daarbij van toepassing.

0 Reacties gevonden