Sin Of Dismay

Sin Of Dismay - Martyr gitaar tab

Je score:
Date: Wed, 15 Nov 2000 03:47:20 -0500
From: "Andreas Jonsson" 
Subject: s/sin_of_dismay/martyr.tab

Sin - of Dismay - Martyr, Tabbed by Mr. Belzebub - Norway
Sent to OLGA by the band�s permission.
www.move.to/sin.of.dismay


intro + ( v )

----------------------------------------------------------------------
---------------------------------------------------------------------
-----------------------------------------------------------------------
--------------------------------------------------------------------
-------------3-2---2---2---2---2---------------------------------------
-----0-0-0-0-1-0---0---0---0---0----------------------------------------



----------------------------------------------------------------------
---------------------------------------------------------------------
-----------------------------------------------------------------------
-------------------------------------------------------------------
------------3-2---*---5---*---5-----------------------------------------
----0-0-0-0-1-0---*---3---*---3-----------------------------------------





----------------------------------------------------------------------
---------------------------------------------------------------------
-----------------------------------------------------------------------
--------------------------------------------------------------------
------------3-2---2---2---2---2-----------------------------------------
----0-0-0-0-1-0---0---0---0---0-----------------------------------------



----------------------------------------------------------------------
---------------------------------------------------------------------
-----------------------------------------------------------------------
--------------------------------------------------------------------
------------3-5-5-5-5-5-(5-5-5)-----------------------------------------
----0-0-0-0-1-3-3-3-3-3-(3-3-3)-----------------------------------------

( v )







----------------------------------------------------------------------
---------------------------------------------------------------------
-----------------------------------------------------------------------
------------------5-5----------------------------------------------
-2-------3----2-2-5-5--------------------------------------------------
-0---0-0-1-00-0-0-3-3----------------------------------------------------







----------------------------------------------------------------------
---------------------------------------------------------------------
-----------------------------------------------------------------------
--------------------------------------------------------------------
-2-------3-----2-5-4-3--------------------------------------------------
-0--0-0--1-00--0-3-2-1--------------------------------------------------









Break

----------------------------------------------------------------------
---------------------------------------------------------------------
----------------------------------------------------------------------
--3------------------------------------------------------------------
--3---------------------------------------------------------------------
--1---------------------------------------------------------------------









Pre Chorus
----------------------------------------------------------------------
---------------------------------------------------------------------
-----------------------------------------------------------------------
--------------------------------------------------------------------
--------3-2--------------------------------------------------------
---0-2------0-5-3-------------------------------------------------


--------------------------------
------------------------------
---------------------------------
---------------------------------
---------------------------------
---0-0000-0000-0000-------


--------------------------------
-------------------------------
-------------------------------
--------------------------------
--------------------------------
---1-1111-1111-1111-------










Chorus
------------------------------------------------------------------------
------------------------------------------------------------------------
------------------------------------------------------------------------
---4--2--5--4-------------------------------------------4--2------
---2--0--3--2-----0-2-3-2-0-3-5-3-0-2-3-2---------------2--0--5--2
----------------------------------------------3-5-3-2---------3--0



interlude
------------------------------------------------------------------------
------------------------------------------------------------------------
------------------------------------------------------------------*
------------2------2-0-3-2------------2------2-0-3-5--------------*
------------2------2-0-3-2------------2------2-0-3-5---------------
----0--0-0----0-0-------------0--0-0----0-0-------------------------




-----------------------------------------------------------------------
-----------------------------------------------------------------------
------------2------2-0-3-2------------2------2-0-3-5-------------*
------------2------2-0-3-2------------2------2-0-3-5-------------*
----0--0-0----0-0-------------0--0-0----0-0------------------------
-----------------------------------------------------------------------
Vind dit lied op:
bol.com
amazon.com

Copyrights:

Auteur: ?

Componist: ?

Publisher: ?

Details:

Taal: Engels

Deel je mening

Dit formulier wordt beschermd door reCAPTCHA en de Google Privacy Policy en Servicevoorwaarden zijn daarbij van toepassing.

0 Reacties gevonden