Shelter

Shelter - Society Based On Bodies gitaar tab

Je score:
-------------------------------------------------------------------------------
                        SOCIETY BASED ON BODIES - Shelter
-------------------------------------------------------------------------------

BY DJOLE   fatdjole@ptt.yu

   Intro
E|-----------------------------
B|-----------------------------
C|-----------------------------
D|--------2-------------2------
A|--0-0-0---5-3---0-0-0---5-3--
E|-----------------------------

E|-------------------------------------------------------------
B|-------------------------------------------------------------
C|-------------------------------------------------------------
D|--2-2-2--2------2-2-2--2-------2-2-2--2--------2-2-2--2------
A|--0-0-0----5-3--0-0-0-----5-3--0-0-0-----5-3---0-0-0----5-3--
E|-------------------------------------------------------------

E|------------------------------------------------------------
B|---------------------------------------5---5---5---5---5----
C|--5-5-5--4-4-4-4-4-4-4---5-5-5--4-4-4----4---4---4---4---4--
D|--5-5-5--4-4-4-4-4-4-4---5-5-5--4-4-4-----------------------
A|--3-3-3--2-2-2-2-2-2-2---3-3-3--2-2-2-----------------------
E|------------------------------------------------------------

   Verse
E|-------------------------------------------------------------
B|-------------------------------------------------------------
C|-------------------------------------------------------------\
D|--2-2-2--2------2-2-2--2-------2-2-2--2--------2-2-2--2------ |x2
A|--0-0-0----5-3--0-0-0-----5-3--0-0-0-----5-3---0-0-0----5-3--/
E|-------------------------------------------------------------

E|------------------------------------------------------------
B|---------------------------------------5---5---5---5---5----
C|--5-5-5--4-4-4-4-4-4-4---5-5-5--4-4-4----4---4---4---4---4--
D|--5-5-5--4-4-4-4-4-4-4---5-5-5--4-4-4-----------------------
A|--3-3-3--2-2-2-2-2-2-2---3-3-3--2-2-2-----------------------
E|------------------------------------------------------------

  Chorus
E|-----------------------------------------------------------
B|-----------------------------------------------------------
C|-----------------------------------------------------------\
D|--5-5-5-5-5--7-7-7-7-7-7--9-9-9-9-9--2-2-2--2-------------- |x2
A|--5-5-5-5-5--7-7-7-7-7-7--9-9-9-9-9--0-0-0-----5--3--------/
E|--3-3-3-3-3--5-5-5-5-5-5--7-7-7-7-7------------------------

 Verse
E|-------------------------------------------------------------
B|-------------------------------------------------------------
C|-------------------------------------------------------------\
D|--2-2-2--2------2-2-2--2-------2-2-2--2--------2-2-2--2------ |x2
A|--0-0-0----5-3--0-0-0-----5-3--0-0-0-----5-3---0-0-0----5-3--/
E|-------------------------------------------------------------

E|------------------------------------------------------------
B|---------------------------------------5---5---5---5---5----
C|--5-5-5--4-4-4-4-4-4-4---5-5-5--4-4-4----4---4---4---4---4--
D|--5-5-5--4-4-4-4-4-4-4---5-5-5--4-4-4-----------------------
A|--3-3-3--2-2-2-2-2-2-2---3-3-3--2-2-2-----------------------
E|------------------------------------------------------------

  Chorus
E|-----------------------------------------------------------
B|-----------------------------------------------------------
C|-----------------------------------------------------------\
D|--5-5-5-5-5--7-7-7-7-7-7--9-9-9-9-9--2-2-2--2-------------- |x2
A|--5-5-5-5-5--7-7-7-7-7-7--9-9-9-9-9--0-0-0-----5--3--------/
E|--3-3-3-3-3--5-5-5-5-5-5--7-7-7-7-7------------------------

E|-------------------------------------------------------------
B|-------------------------------------------------------------
C|-------------------------------------------------------------\
D|--2-2-2--2------2-2-2--2-------2-2-2--2--------2-2-2--2------ |x2
A|--0-0-0----5-3--0-0-0-----5-3--0-0-0-----5-3---0-0-0----5-3--/
E|-------------------------------------------------------------

   Solo
E|------------------------------------------------------------
B|------------------------------------------------------------
C|----5(7)-5(7)-3--------7(9)--7-5---------9(11)-9(11)-9(11)--
D|--5-------------5----7-----------7-5---9--------------------
A|------------------------------------------------------------
E|------------------------------------------------------------

E|----------------------------
B|--10(12)-10(12)-10(12)------
C|------------------------5---
D|----------------------------
A|----------------------------
E|----------------------------

E|-------------------------------------------------------------
B|-------------------------------------------------------------
C|-------------------------------------------------------------\
D|--2-2-2--2------2-2-2--2-------2-2-2--2--------2-2-2--2------ |x2
A|--0-0-0----5-3--0-0-0-----5-3--0-0-0-----5-3---0-0-0----5-3--/
E|-------------------------------------------------------------

E|------------------------------------------------------------
B|---------------------------------------5---5---5---5---5----
C|--5-5-5--4-4-4-4-4-4-4---5-5-5--4-4-4----4---4---4---4---4--\
D|--5-5-5--4-4-4-4-4-4-4---5-5-5--4-4-4----------------------- |x2
A|--3-3-3--2-2-2-2-2-2-2---3-3-3--2-2-2-----------------------/
E|------------------------------------------------------------

  Chorus
E|-----------------------------------------------------------
B|-----------------------------------------------------------
C|-----------------------------------------------------------\
D|--5-5-5-5-5--7-7-7-7-7-7--9-9-9-9-9--2-2-2--2-------------- |x2
A|--5-5-5-5-5--7-7-7-7-7-7--9-9-9-9-9--0-0-0-----5--3--------/
E|--3-3-3-3-3--5-5-5-5-5-5--7-7-7-7-7------------------------

-----------------------------------------------------------------------
Vind dit lied op:
bol.com
amazon.com

Copyrights:

Auteur: ?

Componist: ?

Publisher: ?

Details:

Taal: Engels

Deel je mening

Dit formulier wordt beschermd door reCAPTCHA en de Google Privacy Policy en Servicevoorwaarden zijn daarbij van toepassing.

0 Reacties gevonden