Shelter

Shelter - Not Just Package gitaar tab

Je score:
-------------------------------------------------------------------------------
			 NOT JUST PACKAGE - Shelter
-------------------------------------------------------------------------------

By: DJOLE  fatdjole@ptt.yu

   http://www.xyouthoftodayx.cjb.net

   Intro	 Verse
E|-------------|-------------------|---------------------|-------------------|
B|-------(x2)--|--*-*--*-*-*-(x17)-|--*--*---*-*-*-(x7)--|--*-*--*-*-*-(x8)--|
G|--9-7--------|--9-9--7-7-7-------|--10-10--9-9-9-------|--9-9--7-7-7-------|
D|--9-7--------|--9-9--7-7-7-------|--10-10--9-9-9-------|--9-9--7-7-7-------|
A|--7-5--------|--7-7--5-5-5-------|--8--8---7-7-7-------|--7-7--5-5-5-------|
E|-------------|-------------------|---------------------|-------------------|

   Chorus
E|---------------------------------------------------------------------------|
B|---------------------------------------------------------------------------|
G|--9-9--12-12-12-12--5-5-5------------9-9--12-12-12-12--5-5-5--16-14-12-11--|
D|--9-9--12-12-12-12--5-5-5--7-7-7-7---9-9--12-12-12-12--5-5-5---------------| Repeat
A|--7-7--10-10-10-10--3-3-3--7-7-7-7---7-7--10-10-10-10--3-3-3--14-12-10-9---|
E|---------------------------5-5-5-5-----------------------------------------|

   Bridge
E|---------------------------------------------------------------------------|
B|---------------------------------------------------------------------(x2)--|
G|--5-5-5-5-5--4-4-4-4--2-2-2-2--4-4-4-4-------------------------------------|
D|--5-5-5-5-5--4-4-4-4--2-2-2-2--4-4-4-4-------------------------------------|
A|--3-3-3-3-3--2-2-2-2--0-0-0-0--2-2-2-2-------------------------------------|
E|---------------------------------------------------------------------------|

   Repeat Intro/Verse/Chorus/Bridge

   Break
E|-----12--------|---------------------------|-------------------------------|
B|--12-----12----|---------------------(x3)--|--*-*-*-*----------------------|
G|------------9--|--9-9--7----7----9---------|--9-9-9-9-9-9-9-9-9------------|
D|---------------|--9-9----7----7--9---------|--9-9-9-9-9-9-9-9-9------------|
A|---------------|--7-7----------------------|--7-7-7-7-7-7-7-7-7------------|
E|---------------|---------------------------|-------------------------------|

   Verse
E|-------------|--------------------|----------------------------------------|
B|-------(x2)--|--*-*--*-*-*--(xX)--|--------------(xX)----------------------|
G|--9-7--------|--9-9--7-7-7--------|--9-9--7-7-7----------------------------|
D|--9-7--------|--9-9--7-7-7--------|--9-9--7-7-7----------------------------|
A|--7-5--------|--7-7--5-5-5--------|--7-7--5-5-5----------------------------|
E|-------------|--------------------|----------------------------------------|

   Chorus/Outro
E|---------------------------------------------------------------------------|
B|---------------------------------------------------------------------------|
G|--9-9--12-12-12-12--5-5-5------------9-9--12-12-12-12--5-5-5--16-14-12-11--|
D|--9-9--12-12-12-12--5-5-5--7-7-7-7---9-9--12-12-12-12--5-5-5---------------| Repeat
A|--7-7--10-10-10-10--3-3-3--7-7-7-7---7-7--10-10-10-10--3-3-3--14-12-10-9---|
E|---------------------------5-5-5-5-----------------------------------------|

E|---------------------------------------------------------------------------|
B|---------------------------------------------------------------------------|
G|--9-9--12-12-12-12--5-5-5------------9-9--11-12-13-12-11--5-5--16-14-12-11-|
D|--9-9--12-12-12-12--5-5-5--7-7-7-7---9-9------------------5-5--------------|
A|--7-7--10-10-10-10--3-3-3--7-7-7-7---7-7--9--10-12-10-9---3-3--14-12-10-9--|
E|---------------------------5-5-5-5-----------------------------------------|

E|---------------------------------------------------------------------------||
B|---------------------------------------------------------------------------||
G|--9-9--12-12-12-12--5-5-5------------9-9--12-12-12-12--5-5-5--16-14-12-11--||
D|--9-9--12-12-12-12--5-5-5--7-7-7-7---9-9--12-12-12-12--5-5-5---------------||
A|--7-7--10-10-10-10--3-3-3--7-7-7-7---7-7--10-10-10-10--3-3-3--14-12-10-9---||
E|---------------------------5-5-5-5-----------------------------------------||

===============================================================================
Vind dit lied op:
bol.com
amazon.com

Copyrights:

Auteur: ?

Componist: ?

Publisher: ?

Details:

Taal: Engels

Deel je mening

Dit formulier wordt beschermd door reCAPTCHA en de Google Privacy Policy en Servicevoorwaarden zijn daarbij van toepassing.

0 Reacties gevonden