Shelter

Shelter - Beyond Planet Earth gitaar tab

Je score:
-------------------------------------------------------------------------------
                           BEYOND PLANET EARTH - Shelter
-------------------------------------------------------------------------------

BY DJOLE   fatdjole@ptt.yu

   Intro
E|--------------------------------------------------------------
B|--------------------------------------------------------------
C|--------------------------------------------------------------
D|--5-7--8-8---5-7--8-8---5-7--8-8---5-7--8-8-------------------
A|--3-5--6-6---3-5--6-6---3-5--6-6---3-5--6-6-------------------
E|--------------------------------------------------------------

E|--------------------------------------------------------------
B|--------------------------------------------------------------
C|--------------------------------------------------------------
D|--5-7--8-x-x-x---5-7--8-x-x-x---5-7--8-x-x-x---5-7--8-x-x-x---
A|--3-5--6-x-x-x---3-5--6-x-x-x---3-5--6-x-x-x---3-5--6-x-x-x---
E|--------------------------------------------------------------

   Verse
E|------------------------------------------------------------------
B|------------------------------------------------------------------
C|------5----------5---------5---------5-----------8---------8------
D|----5---5------5---5-----5---5-----5---5-------8---8-----8---8----
A|--3-------3--3-------3-3-------3-3--------5--6-------8-6-------8--
E|------------------------------------------------------------------

E|------------------------------------------------------------------
B|------------------------------------------------------------------
C|------5----------5----------------8---------8---------------------
D|----5---5------5---5------------8---8-----8---8-------------------
A|--3-------3--3-----------5----6-------8-6-------8-----------------
E|------------------------------------------------------------------

E|------------------------------------------------------------------
B|------------------------------------------------------------------
C|------5----------5----------------8---------8---------------------
D|----5---5------5---5------------8---8-----8---8-------------------
A|--3-------3--3-----------5----6-------8-6-------8-----------------
E|------------------------------------------------------------------

E|------------------------------
B|------------------------------
C|------5----------5------------
D|----5---5------5---5----------
A|--3-------3--3-------3--------
E|------------------------------

   Chorus
E|-----------------------------------------------
B|-----------------------------------------------
C|-----------------------------------------------\
D|--6-6-6-6--3-3-3-3---6-6-6-6--3-3-3-3---------- |x2
A|--6-6-6-6--3-3-3-3---6-6-6-6--3-3-3-3----------/
E|--4-4-4-4--1-1-1-1---4-4-4-4--1-1-1-1----------

  Verse
E|------------------------------------------------------------------
B|------------------------------------------------------------------
C|------5----------5----------------8---------8---------------------
D|----5---5------5---5------------8---8-----8---8-------------------
A|--3-------3--3-----------5----6-------8-6-------8-----------------
E|------------------------------------------------------------------

E|------------------------------------------------------------------
B|------------------------------------------------------------------
C|------5----------5----------------8---------8---------------------
D|----5---5------5---5------------8---8-----8---8-------------------
A|--3-------3--3-----------5----6-------8-6-------8-----------------
E|------------------------------------------------------------------

E|------------------------------
B|------------------------------
C|------5----------5------------
D|----5---5------5---5----------
A|--3-------3--3-------3--------
E|------------------------------

   Chorus
E|-----------------------------------------------
B|-----------------------------------------------
C|-----------------------------------------------\
D|--6-6-6-6--3-3-3-3---6-6-6-6--3-3-3-3---------- |x2
A|--6-6-6-6--3-3-3-3---6-6-6-6--3-3-3-3----------/
E|--4-4-4-4--1-1-1-1---4-4-4-4--1-1-1-1----------

E|--------------------------------------------------------------
B|--------------------------------------------------------------
C|--------------------------------------------------------------
D|--5-7--8-8---5-7--8-8---5-7--8-8---5-7--8-8-------------------
A|--3-5--6-6---3-5--6-6---3-5--6-6---3-5--6-6-------------------
E|--------------------------------------------------------------

E|--------------------------------------------------------------
B|--------------------------------------------------------------
C|--------------------------------------------------------------
D|--5-7--8-8---5-7--8-8---5-7--8-8---5-7--8-8-------------------
A|--3-5--6-6---3-5--6-6---3-5--6-6---3-5--6-6-------------------
E|--------------------------------------------------------------

E|--------------------------------------------------------------------
B|--------------------------------------------------------------------
C|--------------------------------------------------------------------
D|--6-6-6-6--3-3-3-3--8-8-8-8-8-8-8---6-6-6-6--3-3-3-3--8-8-8-8-8-8-8-
A|--6-6-6-6--3-3-3-3--6-6-6-6-6-6-6---6-6-6-6--3-3-3-3--6-6-6-6-6-6-6-
E|--4-4-4-4--1-1-1-1------------------4-4-4-4--1-1-1-1----------------

E|-----------------------------------------------------------
B|-----------------------------------------------------------
C|-----------------------------------------------------------
D|--6-6-6-6--3-3-3-3--8-8-8-8-8-8-8----5---------------------
A|--6-6-6-6--3-3-3-3--6-6-6-6-6-6-6----3---------------------
E|--4-4-4-4--1-1-1-1-----------------------------------------

E|------------------------------------------------------------------
B|------------------------------------------------------------------
C|------5----------5---------5---------5-----------8---------8------
D|----5---5------5---5-----5---5-----5---5-------8---8-----8---8----
A|--3-------3--3-------3-3-------3-3--------5--6-------8-6-------8--
E|------------------------------------------------------------------

E|------------------------------
B|------------------------------
C|------5----------5------------
D|----5---5------5---5----------
A|--3-------3--3-------3--------
E|------------------------------

   Chorus (Outro)
E|-----------------------------------------------||
B|-----------------------------------------------||
C|-----------------------------------------------||
D|--6-6-6-6--3-3-3-3---6-6-6-6--3-3-3-3----5-----||
A|--6-6-6-6--3-3-3-3---6-6-6-6--3-3-3-3----3-----||
E|--4-4-4-4--1-1-1-1---4-4-4-4--1-1-1-1----------||

-------------------------------------------------------------------------------
Vind dit lied op:
bol.com
amazon.com

Copyrights:

Auteur: ?

Componist: ?

Publisher: ?

Details:

Taal: Engels

Deel je mening

Dit formulier wordt beschermd door reCAPTCHA en de Google Privacy Policy en Servicevoorwaarden zijn daarbij van toepassing.

0 Reacties gevonden